999
dxfrw 0.5.11
0
SECTION
2
HEADER
9
$ACADVER
1
AC1021
9
$HANDSEED
5
20000
9
$DWGCODEPAGE
3
ANSI_1252
9
$INSBASE
10
0
20
0
30
0
9
$EXTMIN
10
10000000000
20
10000000000
30
0
9
$EXTMAX
10
-10000000000
20
-10000000000
30
0
9
$LIMMIN
10
0
20
0
9
$LIMMAX
10
420
20
297
9
$ORTHOMODE
70
0
9
$LTSCALE
40
1
9
$TEXTSTYLE
7
STANDARD
9
$CLAYER
8
liteaux
9
$DIMASZ
40
2.5
9
$DIMLFAC
40
1
9
$DIMSCALE
40
1
9
$DIMEXO
40
0.625
9
$DIMEXE
40
1.25
9
$DIMTXT
40
2.5
9
$DIMTSZ
40
0
9
$DIMAUNIT
70
0
9
$DIMADEC
70
0
9
$DIMLUNIT
70
2
9
$DIMSTYLE
2
STANDARD
9
$DIMGAP
40
0.625
9
$DIMTIH
70
0
9
$LUNITS
70
2
9
$LUPREC
70
4
9
$AUNITS
70
0
9
$AUPREC
70
2
9
$SPLINESEGS
70
8
9
$GRIDMODE
70
1
9
$SNAPSTYLE
70
0
9
$PINSBASE
10
0
20
0
30
0
9
$PLIMMIN
10
0
20
0
9
$PLIMMAX
10
210
20
297
9
$INSUNITS
70
4
9
$PSVPSCALE
40
1
0
ENDSEC
0
SECTION
2
CLASSES
0
ENDSEC
0
SECTION
2
TABLES
0
TABLE
2
VPORT
5
8
330
0
100
AcDbSymbolTable
70
1
0
VPORT
5
31
330
2
100
AcDbSymbolTableRecord
100
AcDbViewportTableRecord
2
*ACTIVE
70
0
10
0
20
0
11
1
21
1
12
707.100587821
22
346.923026787
13
0
23
0
14
10
24
10
15
10
25
10
16
0
26
0
36
1
17
0
27
0
37
0
40
870.188987457
41
1.9880794702
42
50
43
0
44
0
50
0
51
0
71
0
72
100
73
1
74
3
75
0
76
1
77
0
78
0
281
0
65
1
110
0
120
0
130
0
111
1
121
0
131
0
112
0
122
1
132
0
79
0
146
0
348
10020
60
7
61
5
292
1
282
1
141
0
142
0
63
250
421
3358443
0
ENDTAB
0
TABLE
2
LTYPE
5
5
330
0
100
AcDbSymbolTable
70
4
0
LTYPE
5
14
330
5
100
AcDbSymbolTableRecord
100
AcDbLinetypeTableRecord
2
ByBlock
70
0
3

72
65
73
0
40
0
0
LTYPE
5
15
330
5
100
AcDbSymbolTableRecord
100
AcDbLinetypeTableRecord
2
ByLayer
70
0
3

72
65
73
0
40
0
0
LTYPE
5
16
330
5
100
AcDbSymbolTableRecord
100
AcDbLinetypeTableRecord
2
Continuous
70
0
3
Solid line
72
65
73
0
40
0
0
LTYPE
5
32
330
5
100
AcDbSymbolTableRecord
100
AcDbLinetypeTableRecord
2
DOT
70
0
3
Dot . . . . . . . . . . . . . . . . . . . . . .
72
65
73
2
40
6.35
49
0
74
0
49
-6.35
74
0
0
LTYPE
5
33
330
5
100
AcDbSymbolTableRecord
100
AcDbLinetypeTableRecord
2
DOT2
70
0
3
Dot (.5x) .....................................
72
65
73
2
40
3.175
49
0
74
0
49
-3.175
74
0
0
LTYPE
5
34
330
5
100
AcDbSymbolTableRecord
100
AcDbLinetypeTableRecord
2
DOTX2
70
0
3
Dot (2x) .  .  .  .  .  .  .  .  .  .  .  .  .
72
65
73
2
40
12.7
49
0
74
0
49
-12.7
74
0
0
LTYPE
5
35
330
5
100
AcDbSymbolTableRecord
100
AcDbLinetypeTableRecord
2
DASHED
70
0
3
Dot . . . . . . . . . . . . . . . . . . . . . .
72
65
73
2
40
19.05
49
12.7
74
0
49
-6.35
74
0
0
LTYPE
5
36
330
5
100
AcDbSymbolTableRecord
100
AcDbLinetypeTableRecord
2
DASHED2
70
0
3
Dashed (.5x) _ _ _ _ _ _ _ _ _ _ _ _ _ _ _ _ _
72
65
73
2
40
9.525
49
6.35
74
0
49
-3.175
74
0
0
LTYPE
5
37
330
5
100
AcDbSymbolTableRecord
100
AcDbLinetypeTableRecord
2
DASHEDX2
70
0
3
Dashed (2x) ____  ____  ____  ____  ____  ___
72
65
73
2
40
38.1
49
25.4
74
0
49
-12.7
74
0
0
LTYPE
5
38
330
5
100
AcDbSymbolTableRecord
100
AcDbLinetypeTableRecord
2
DASHDOT
70
0
3
Dash dot __ . __ . __ . __ . __ . __ . __ . __
72
65
73
4
40
25.4
49
12.7
74
0
49
-6.35
74
0
49
0
74
0
49
-6.35
74
0
0
LTYPE
5
39
330
5
100
AcDbSymbolTableRecord
100
AcDbLinetypeTableRecord
2
DASHDOT2
70
0
3
Dash dot (.5x) _._._._._._._._._._._._._._._.
72
65
73
4
40
12.7
49
6.35
74
0
49
-3.175
74
0
49
0
74
0
49
-3.175
74
0
0
LTYPE
5
3A
330
5
100
AcDbSymbolTableRecord
100
AcDbLinetypeTableRecord
2
DASHDOTX2
70
0
3
Dash dot (2x) ____  .  ____  .  ____  .  ___
72
65
73
4
40
50.8
49
25.4
74
0
49
-12.7
74
0
49
0
74
0
49
-12.7
74
0
0
LTYPE
5
3B
330
5
100
AcDbSymbolTableRecord
100
AcDbLinetypeTableRecord
2
DIVIDE
70
0
3
Divide ____ . . ____ . . ____ . . ____ . . ____
72
65
73
6
40
31.75
49
12.7
74
0
49
-6.35
74
0
49
0
74
0
49
-6.35
74
0
49
0
74
0
49
-6.35
74
0
0
LTYPE
5
3C
330
5
100
AcDbSymbolTableRecord
100
AcDbLinetypeTableRecord
2
DIVIDE2
70
0
3
Divide (.5x) __..__..__..__..__..__..__..__.._
72
65
73
6
40
15.875
49
6.35
74
0
49
-3.175
74
0
49
0
74
0
49
-3.175
74
0
49
0
74
0
49
-3.175
74
0
0
LTYPE
5
3D
330
5
100
AcDbSymbolTableRecord
100
AcDbLinetypeTableRecord
2
DIVIDEX2
70
0
3
Divide (2x) ________  .  .  ________  .  .  _
72
65
73
6
40
63.5
49
25.4
74
0
49
-12.7
74
0
49
0
74
0
49
-12.7
74
0
49
0
74
0
49
-12.7
74
0
0
LTYPE
5
3E
330
5
100
AcDbSymbolTableRecord
100
AcDbLinetypeTableRecord
2
BORDER
70
0
3
Border __ __ . __ __ . __ __ . __ __ . __ __ .
72
65
73
6
40
44.45
49
12.7
74
0
49
-6.35
74
0
49
12.7
74
0
49
-6.35
74
0
49
0
74
0
49
-6.35
74
0
0
LTYPE
5
3F
330
5
100
AcDbSymbolTableRecord
100
AcDbLinetypeTableRecord
2
BORDER2
70
0
3
Border (.5x) __.__.__.__.__.__.__.__.__.__.__.
72
65
73
6
40
22.225
49
6.35
74
0
49
-3.175
74
0
49
6.35
74
0
49
-3.175
74
0
49
0
74
0
49
-3.175
74
0
0
LTYPE
5
40
330
5
100
AcDbSymbolTableRecord
100
AcDbLinetypeTableRecord
2
BORDERX2
70
0
3
Border (2x) ____  ____  .  ____  ____  .  ___
72
65
73
6
40
88.9
49
25.4
74
0
49
-12.7
74
0
49
25.4
74
0
49
-12.7
74
0
49
0
74
0
49
-12.7
74
0
0
LTYPE
5
41
330
5
100
AcDbSymbolTableRecord
100
AcDbLinetypeTableRecord
2
CENTER
70
0
3
Center ____ _ ____ _ ____ _ ____ _ ____ _ ____
72
65
73
4
40
50.8
49
31.75
74
0
49
-6.35
74
0
49
6.35
74
0
49
-6.35
74
0
0
LTYPE
5
42
330
5
100
AcDbSymbolTableRecord
100
AcDbLinetypeTableRecord
2
CENTER2
70
0
3
Center (.5x) ___ _ ___ _ ___ _ ___ _ ___ _ ___
72
65
73
4
40
28.575
49
19.05
74
0
49
-3.175
74
0
49
3.175
74
0
49
-3.175
74
0
0
LTYPE
5
43
330
5
100
AcDbSymbolTableRecord
100
AcDbLinetypeTableRecord
2
CENTERX2
70
0
3
Center (2x) ________  __  ________  __  _____
72
65
73
4
40
101.6
49
63.5
74
0
49
-12.7
74
0
49
12.7
74
0
49
-12.7
74
0
0
ENDTAB
0
TABLE
2
LAYER
5
2
330
0
100
AcDbSymbolTable
70
1
0
LAYER
5
10
330
2
100
AcDbSymbolTableRecord
100
AcDbLayerTableRecord
2
0
70
0
62
7
6
CONTINUOUS
370
0
390
F
0
LAYER
5
44
330
2
100
AcDbSymbolTableRecord
100
AcDbLayerTableRecord
2
axes
70
1
62
7
6
CONTINUOUS
370
0
390
F
0
LAYER
5
45
330
2
100
AcDbSymbolTableRecord
100
AcDbLayerTableRecord
2
liteaux
70
0
62
7
6
CONTINUOUS
370
0
390
F
0
ENDTAB
0
TABLE
2
STYLE
5
3
330
0
100
AcDbSymbolTable
70
3
0
STYLE
5
46
330
2
100
AcDbSymbolTableRecord
100
AcDbTextStyleTableRecord
2
Standard
70
0
40
0
41
1
50
0
71
0
42
1
3
txt
4

0
ENDTAB
0
TABLE
2
VIEW
5
6
330
0
100
AcDbSymbolTable
70
0
0
ENDTAB
0
TABLE
2
UCS
5
7
330
0
100
AcDbSymbolTable
70
0
0
ENDTAB
0
TABLE
2
APPID
5
9
330
0
100
AcDbSymbolTable
70
1
0
APPID
5
12
330
9
100
AcDbSymbolTableRecord
100
AcDbRegAppTableRecord
2
ACAD
70
0
0
ENDTAB
0
TABLE
2
DIMSTYLE
5
A
330
0
100
AcDbSymbolTable
70
1
100
AcDbDimStyleTable
71
1
0
DIMSTYLE
105
47
330
A
100
AcDbSymbolTableRecord
100
AcDbDimStyleTableRecord
2
Standard
70
0
40
1
41
2.5
42
0.625
43
0.38
44
1.25
45
0
46
0
47
0
48
0
140
2.5
141
0.09
142
0
143
25.4
144
1
145
0
146
1
147
0.625
148
0
71
0
72
0
73
0
74
1
75
0
76
0
77
0
78
0
79
0
170
0
171
2
172
0
173
0
174
0
175
0
176
0
177
0
178
0
179
0
271
4
272
4
273
2
274
2
275
0
276
0
277
2
278
46
279
0
280
0
281
0
282
0
283
1
284
0
285
0
286
0
288
0
289
3
340
Standard
341

371
-2
372
-2
0
ENDTAB
0
TABLE
2
BLOCK_RECORD
5
1
330
0
100
AcDbSymbolTable
70
2
0
BLOCK_RECORD
5
1F
330
1
100
AcDbSymbolTableRecord
100
AcDbBlockTableRecord
2
*Model_Space
70
0
280
1
281
0
0
BLOCK_RECORD
5
1E
330
1
100
AcDbSymbolTableRecord
100
AcDbBlockTableRecord
2
*Paper_Space
70
0
280
1
281
0
0
BLOCK_RECORD
5
48
330
1
100
AcDbSymbolTableRecord
100
AcDbBlockTableRecord
2
a3
70
0
280
1
281
0
0
BLOCK_RECORD
5
4B
330
1
100
AcDbSymbolTableRecord
100
AcDbBlockTableRecord
2
a3-0
70
0
280
1
281
0
0
BLOCK_RECORD
5
4E
330
1
100
AcDbSymbolTableRecord
100
AcDbBlockTableRecord
2
foot-cotes
70
0
280
1
281
0
0
BLOCK_RECORD
5
51
330
1
100
AcDbSymbolTableRecord
100
AcDbBlockTableRecord
2
forrotules-0
70
0
280
1
281
0
0
BLOCK_RECORD
5
54
330
1
100
AcDbSymbolTableRecord
100
AcDbBlockTableRecord
2
profil-axe-0
70
0
280
1
281
0
0
ENDTAB
0
ENDSEC
0
SECTION
2
BLOCKS
0
BLOCK
5
20
330
1F
100
AcDbEntity
8
0
100
AcDbBlockBegin
2
*Model_Space
70
0
10
0
20
0
30
0
3
*Model_Space
1

0
ENDBLK
5
21
330
1F
100
AcDbEntity
8
0
100
AcDbBlockEnd
0
BLOCK
5
1C
330
1B
100
AcDbEntity
8
0
100
AcDbBlockBegin
2
*Paper_Space
70
0
10
0
20
0
30
0
3
*Paper_Space
1

0
ENDBLK
5
1D
330
1F
100
AcDbEntity
8
0
100
AcDbBlockEnd
0
BLOCK
5
49
330
48
100
AcDbEntity
8
0
100
AcDbBlockBegin
2
a3
70
0
10
0
20
0
3
a3
1

0
ENDBLK
5
4A
330
48
100
AcDbEntity
8
0
100
AcDbBlockEnd
0
BLOCK
5
4C
330
4B
100
AcDbEntity
8
0
100
AcDbBlockBegin
2
a3-0
70
0
10
0
20
0
3
a3-0
1

0
ENDBLK
5
4D
330
4B
100
AcDbEntity
8
0
100
AcDbBlockEnd
0
BLOCK
5
4F
330
4E
100
AcDbEntity
8
0
100
AcDbBlockBegin
2
foot-cotes
70
0
10
0
20
0
3
foot-cotes
1

0
ENDBLK
5
50
330
4E
100
AcDbEntity
8
0
100
AcDbBlockEnd
0
BLOCK
5
52
330
51
100
AcDbEntity
8
0
100
AcDbBlockBegin
2
forrotules-0
70
0
10
0
20
0
3
forrotules-0
1

0
ENDBLK
5
53
330
51
100
AcDbEntity
8
0
100
AcDbBlockEnd
0
BLOCK
5
55
330
54
100
AcDbEntity
8
0
100
AcDbBlockBegin
2
profil-axe-0
70
0
10
0
20
0
3
profil-axe-0
1

0
HATCH
5
57
100
AcDbEntity
8
0
6
ByLayer
62
256
370
-1
100
AcDbHatch
10
0
20
0
30
0
210
0
220
0
230
1
2
SOLID
70
1
71
0
91
1
92
0
93
64
72
1
10
35
20
22
11
35
21
35
72
1
10
35
20
35
11
22
21
35
72
1
10
22
20
35
11
22
21
33.43
72
1
10
22
20
33.43
11
25.73
21
33.43
72
1
10
25.73
20
33.43
11
25.73
21
27.23
72
1
10
25.73
20
27.23
11
22
21
27.23
72
1
10
22
20
27.23
11
13
21
27.23
72
1
10
13
20
27.23
11
9.27
21
27.23
72
1
10
9.27
20
27.23
11
9.27
21
33.43
72
1
10
9.27
20
33.43
11
13
21
33.43
72
1
10
13
20
33.43
11
13
21
35
72
1
10
13
20
35
11
0
21
35
72
1
10
0
20
35
11
0
21
22
72
1
10
0
20
22
11
1.57
21
22
72
1
10
1.57
20
22
11
1.57
21
25.73
72
1
10
1.57
20
25.73
11
7.77
21
25.73
72
1
10
7.77
20
25.73
11
7.77
21
9.27
72
1
10
7.77
20
9.27
11
1.57
21
9.27
72
1
10
1.57
20
9.27
11
1.57
21
13
72
1
10
1.57
20
13
11
0
21
13
72
1
10
0
20
13
11
0
21
0
72
1
10
0
20
0
11
13
21
0
72
1
10
13
20
0
11
13
21
1.57
72
1
10
13
20
1.57
11
9.27
21
1.57
72
1
10
9.27
20
1.57
11
9.27
21
7.77
72
1
10
9.27
20
7.77
11
13
21
7.77
72
1
10
13
20
7.77
11
22
21
7.77
72
1
10
22
20
7.77
11
25.73
21
7.77
72
1
10
25.73
20
7.77
11
25.73
21
1.57
72
1
10
25.73
20
1.57
11
22
21
1.57
72
1
10
22
20
1.57
11
22
21
0
72
1
10
22
20
0
11
35
21
0
72
1
10
35
20
0
11
35
21
13
72
1
10
35
20
13
11
33.43
21
13
72
1
10
33.43
20
13
11
33.43
21
9.27
72
1
10
33.43
20
9.27
11
27.23
21
9.27
72
1
10
27.23
20
9.27
11
27.23
21
25.73
72
1
10
27.23
20
25.73
11
33.43
21
25.73
72
1
10
33.43
20
25.73
11
33.43
21
22
72
1
10
33.43
20
22
11
35
21
22
72
1
10
33.43
20
27.23
11
33.43
21
33.43
72
1
10
33.43
20
33.43
11
27.23
21
33.43
72
1
10
27.23
20
33.43
11
27.23
21
27.23
72
1
10
27.23
20
27.23
11
33.43
21
27.23
72
1
10
25.73
20
25.73
11
22
21
25.73
72
1
10
22
20
25.73
11
13
21
25.73
72
1
10
13
20
25.73
11
9.27
21
25.73
72
1
10
9.27
20
25.73
11
9.27
21
9.27
72
1
10
9.27
20
9.27
11
13
21
9.27
72
1
10
13
20
9.27
11
22
21
9.27
72
1
10
22
20
9.27
11
25.73
21
9.27
72
1
10
25.73
20
9.27
11
25.73
21
25.73
72
1
10
1.57
20
27.23
11
1.57
21
33.43
72
1
10
1.57
20
33.43
11
7.77
21
33.43
72
1
10
7.77
20
33.43
11
7.77
21
27.23
72
1
10
7.77
20
27.23
11
1.57
21
27.23
72
1
10
33.43
20
7.77
11
33.43
21
1.57
72
1
10
33.43
20
1.57
11
27.23
21
1.57
72
1
10
27.23
20
1.57
11
27.23
21
7.77
72
1
10
27.23
20
7.77
11
33.43
21
7.77
72
1
10
1.57
20
7.77
11
1.57
21
1.57
72
1
10
1.57
20
1.57
11
7.77
21
1.57
72
1
10
7.77
20
1.57
11
7.77
21
7.77
72
1
10
7.77
20
7.77
11
1.57
21
7.77
97
0
75
0
76
1
98
0
0
LINE
5
58
100
AcDbEntity
8
0
6
ByLayer
62
256
370
-1
100
AcDbLine
10
22
20
35
11
35
21
35
0
LINE
5
59
100
AcDbEntity
8
0
6
ByLayer
62
256
370
-1
100
AcDbLine
10
22
20
35
11
22
21
33.43
0
LINE
5
5A
100
AcDbEntity
8
0
6
ByLayer
62
256
370
-1
100
AcDbLine
10
33.43
20
22
11
35
21
22
0
LINE
5
5B
100
AcDbEntity
8
0
6
ByLayer
62
256
370
-1
100
AcDbLine
10
25.73
20
33.43
11
22
21
33.43
0
LINE
5
5C
100
AcDbEntity
8
0
6
ByLayer
62
256
370
-1
100
AcDbLine
10
33.43
20
27.23
11
33.43
21
33.43
0
LINE
5
5D
100
AcDbEntity
8
0
6
ByLayer
62
256
370
-1
100
AcDbLine
10
33.43
20
33.43
11
27.23
21
33.43
0
LINE
5
5E
100
AcDbEntity
8
0
6
ByLayer
62
256
370
-1
100
AcDbLine
10
27.23
20
27.23
11
27.23
21
33.43
0
LINE
5
5F
100
AcDbEntity
8
0
6
ByLayer
62
256
370
-1
100
AcDbLine
10
33.43
20
22
11
33.43
21
25.73
0
LINE
5
60
100
AcDbEntity
8
0
6
ByLayer
62
256
370
-1
100
AcDbLine
10
25.73
20
27.23
11
22
21
27.23
0
LINE
5
61
100
AcDbEntity
8
0
6
ByLayer
62
256
370
-1
100
AcDbLine
10
25.73
20
27.23
11
25.73
21
33.43
0
LINE
5
62
100
AcDbEntity
8
0
6
ByLayer
62
256
370
-1
100
AcDbLine
10
27.23
20
27.23
11
33.43
21
27.23
0
LINE
5
63
100
AcDbEntity
8
0
6
ByLayer
62
256
370
-1
100
AcDbLine
10
33.43
20
25.73
11
27.23
21
25.73
0
LINE
5
64
100
AcDbEntity
8
0
6
ByLayer
62
256
370
-1
100
AcDbLine
10
25.73
20
25.73
11
22
21
25.73
0
LINE
5
65
100
AcDbEntity
8
0
6
ByLayer
62
256
370
-1
100
AcDbLine
10
0
20
22
11
0
21
35
0
LINE
5
66
100
AcDbEntity
8
0
6
ByLayer
62
256
370
-1
100
AcDbLine
10
13
20
35
11
0
21
35
0
LINE
5
67
100
AcDbEntity
8
0
6
ByLayer
62
256
370
-1
100
AcDbLine
10
13
20
35
11
13
21
33.43
0
LINE
5
68
100
AcDbEntity
8
0
6
ByLayer
62
256
370
-1
100
AcDbLine
10
1.57
20
22
11
0
21
22
0
LINE
5
69
100
AcDbEntity
8
0
6
ByLayer
62
256
370
-1
100
AcDbLine
10
9.27
20
33.43
11
13
21
33.43
0
LINE
5
6A
100
AcDbEntity
8
0
6
ByLayer
62
256
370
-1
100
AcDbLine
10
1.57
20
27.23
11
1.57
21
33.43
0
LINE
5
6B
100
AcDbEntity
8
0
6
ByLayer
62
256
370
-1
100
AcDbLine
10
1.57
20
33.43
11
7.77
21
33.43
0
LINE
5
6C
100
AcDbEntity
8
0
6
ByLayer
62
256
370
-1
100
AcDbLine
10
7.77
20
27.23
11
7.77
21
33.43
0
LINE
5
6D
100
AcDbEntity
8
0
6
ByLayer
62
256
370
-1
100
AcDbLine
10
1.57
20
22
11
1.57
21
25.73
0
LINE
5
6E
100
AcDbEntity
8
0
6
ByLayer
62
256
370
-1
100
AcDbLine
10
9.27
20
27.23
11
13
21
27.23
0
LINE
5
6F
100
AcDbEntity
8
0
6
ByLayer
62
256
370
-1
100
AcDbLine
10
9.27
20
27.23
11
9.27
21
33.43
0
LINE
5
70
100
AcDbEntity
8
0
6
ByLayer
62
256
370
-1
100
AcDbLine
10
7.77
20
27.23
11
1.57
21
27.23
0
LINE
5
71
100
AcDbEntity
8
0
6
ByLayer
62
256
370
-1
100
AcDbLine
10
1.57
20
25.73
11
7.77
21
25.73
0
LINE
5
72
100
AcDbEntity
8
0
6
ByLayer
62
256
370
-1
100
AcDbLine
10
9.27
20
25.73
11
13
21
25.73
0
LINE
5
73
100
AcDbEntity
8
0
6
ByLayer
62
256
370
-1
100
AcDbLine
10
35
20
13
11
35
21
0
0
LINE
5
74
100
AcDbEntity
8
0
6
ByLayer
62
256
370
-1
100
AcDbLine
10
22
20
0
11
35
21
0
0
LINE
5
75
100
AcDbEntity
8
0
6
ByLayer
62
256
370
-1
100
AcDbLine
10
22
20
0
11
22
21
1.57
0
LINE
5
76
100
AcDbEntity
8
0
6
ByLayer
62
256
370
-1
100
AcDbLine
10
33.43
20
13
11
35
21
13
0
LINE
5
77
100
AcDbEntity
8
0
6
ByLayer
62
256
370
-1
100
AcDbLine
10
25.73
20
1.57
11
22
21
1.57
0
LINE
5
78
100
AcDbEntity
8
0
6
ByLayer
62
256
370
-1
100
AcDbLine
10
33.43
20
7.77
11
33.43
21
1.57
0
LINE
5
79
100
AcDbEntity
8
0
6
ByLayer
62
256
370
-1
100
AcDbLine
10
33.43
20
1.57
11
27.23
21
1.57
0
LINE
5
7A
100
AcDbEntity
8
0
6
ByLayer
62
256
370
-1
100
AcDbLine
10
27.23
20
7.77
11
27.23
21
1.57
0
LINE
5
7B
100
AcDbEntity
8
0
6
ByLayer
62
256
370
-1
100
AcDbLine
10
33.43
20
13
11
33.43
21
9.27
0
LINE
5
7C
100
AcDbEntity
8
0
6
ByLayer
62
256
370
-1
100
AcDbLine
10
25.73
20
7.77
11
22
21
7.77
0
LINE
5
7D
100
AcDbEntity
8
0
6
ByLayer
62
256
370
-1
100
AcDbLine
10
25.73
20
7.77
11
25.73
21
1.57
0
LINE
5
7E
100
AcDbEntity
8
0
6
ByLayer
62
256
370
-1
100
AcDbLine
10
27.23
20
7.77
11
33.43
21
7.77
0
LINE
5
7F
100
AcDbEntity
8
0
6
ByLayer
62
256
370
-1
100
AcDbLine
10
33.43
20
9.27
11
27.23
21
9.27
0
LINE
5
80
100
AcDbEntity
8
0
6
ByLayer
62
256
370
-1
100
AcDbLine
10
25.73
20
9.27
11
22
21
9.27
0
LINE
5
81
100
AcDbEntity
8
0
6
ByLayer
62
256
370
-1
100
AcDbLine
10
0
20
13
11
0
21
0
0
LINE
5
82
100
AcDbEntity
8
0
6
ByLayer
62
256
370
-1
100
AcDbLine
10
13
20
0
11
0
21
0
0
LINE
5
83
100
AcDbEntity
8
0
6
ByLayer
62
256
370
-1
100
AcDbLine
10
13
20
0
11
13
21
1.57
0
LINE
5
84
100
AcDbEntity
8
0
6
ByLayer
62
256
370
-1
100
AcDbLine
10
1.57
20
13
11
0
21
13
0
LINE
5
85
100
AcDbEntity
8
0
6
ByLayer
62
256
370
-1
100
AcDbLine
10
9.27
20
1.57
11
13
21
1.57
0
LINE
5
86
100
AcDbEntity
8
0
6
ByLayer
62
256
370
-1
100
AcDbLine
10
1.57
20
7.77
11
1.57
21
1.57
0
LINE
5
87
100
AcDbEntity
8
0
6
ByLayer
62
256
370
-1
100
AcDbLine
10
1.57
20
1.57
11
7.77
21
1.57
0
LINE
5
88
100
AcDbEntity
8
0
6
ByLayer
62
256
370
-1
100
AcDbLine
10
7.77
20
7.77
11
7.77
21
1.57
0
LINE
5
89
100
AcDbEntity
8
0
6
ByLayer
62
256
370
-1
100
AcDbLine
10
1.57
20
13
11
1.57
21
9.27
0
LINE
5
8A
100
AcDbEntity
8
0
6
ByLayer
62
256
370
-1
100
AcDbLine
10
9.27
20
7.77
11
13
21
7.77
0
LINE
5
8B
100
AcDbEntity
8
0
6
ByLayer
62
256
370
-1
100
AcDbLine
10
9.27
20
7.77
11
9.27
21
1.57
0
LINE
5
8C
100
AcDbEntity
8
0
6
ByLayer
62
256
370
-1
100
AcDbLine
10
7.77
20
7.77
11
1.57
21
7.77
0
LINE
5
8D
100
AcDbEntity
8
0
6
ByLayer
62
256
370
-1
100
AcDbLine
10
1.57
20
9.27
11
7.77
21
9.27
0
LINE
5
8E
100
AcDbEntity
8
0
6
ByLayer
62
256
370
-1
100
AcDbLine
10
9.27
20
9.27
11
13
21
9.27
0
LINE
5
8F
100
AcDbEntity
8
0
6
ByLayer
62
256
370
-1
100
AcDbLine
10
7.77
20
25.73
11
7.77
21
9.27
0
LINE
5
90
100
AcDbEntity
8
0
6
ByLayer
62
256
370
-1
100
AcDbLine
10
9.27
20
9.27
11
9.27
21
25.73
0
LINE
5
91
100
AcDbEntity
8
0
6
ByLayer
62
256
370
-1
100
AcDbLine
10
13
20
25.73
11
22
21
25.73
0
LINE
5
92
100
AcDbEntity
8
0
6
ByLayer
62
256
370
-1
100
AcDbLine
10
13
20
27.23
11
22
21
27.23
0
LINE
5
93
100
AcDbEntity
8
0
6
ByLayer
62
256
370
-1
100
AcDbLine
10
27.23
20
25.73
11
27.23
21
9.27
0
LINE
5
94
100
AcDbEntity
8
0
6
ByLayer
62
256
370
-1
100
AcDbLine
10
25.73
20
25.73
11
25.73
21
9.27
0
LINE
5
95
100
AcDbEntity
8
0
6
ByLayer
62
256
370
-1
100
AcDbLine
10
22
20
9.27
11
13
21
9.27
0
LINE
5
96
100
AcDbEntity
8
0
6
ByLayer
62
256
370
-1
100
AcDbLine
10
13
20
7.77
11
22
21
7.77
0
ENDBLK
5
56
330
54
100
AcDbEntity
8
0
100
AcDbBlockEnd
0
ENDSEC
0
SECTION
2
ENTITIES
0
LINE
5
97
100
AcDbEntity
8
0
6
ByLayer
62
256
370
-1
100
AcDbLine
10
-50
20
86.6025403784
11
50
21
-86.6025403784
0
LINE
5
98
100
AcDbEntity
8
0
6
ByLayer
62
256
370
-1
100
AcDbLine
10
620
20
-86.6025403784
11
720
21
86.6025403784
0
LINE
5
99
100
AcDbEntity
8
0
6
ByLayer
62
256
370
-1
100
AcDbLine
10
235
20
580.237020536
11
435
21
580.237020536
0
LINE
5
9A
100
AcDbEntity
8
0
6
ByLayer
62
256
370
-1
100
AcDbLine
10
-50
20
86.6025403784
11
235
21
580.237020536
0
LINE
5
9B
100
AcDbEntity
8
0
6
ByLayer
62
256
370
-1
100
AcDbLine
10
435
20
580.237020536
11
720
21
86.6025403784
0
LINE
5
9C
100
AcDbEntity
8
0
6
ByLayer
62
256
370
-1
100
AcDbLine
10
620
20
-86.6025403784
11
50
21
-86.6025403784
0
LINE
5
9D
100
AcDbEntity
8
axes
6
ByLayer
62
256
370
-1
100
AcDbLine
10
-27.0175588833
20
2.79578468229
11
-27.8025588833
21
4.15544456623
0
LINE
5
9E
100
AcDbEntity
8
axes
6
ByLayer
62
256
370
-1
100
AcDbLine
10
-27.8025588833
20
4.15544456623
11
-39.0608891325
21
-2.34455543377
0
LINE
5
9F
100
AcDbEntity
8
axes
6
ByLayer
62
256
370
-1
100
AcDbLine
10
-39.0608891325
20
-2.34455543377
11
-32.5608891325
21
-13.602885683
0
LINE
5
A0
100
AcDbEntity
8
axes
6
ByLayer
62
256
370
-1
100
AcDbLine
10
-32.5608891325
20
-13.602885683
11
-31.2012292485
21
-12.817885683
0
LINE
5
A1
100
AcDbEntity
8
axes
6
ByLayer
62
256
370
-1
100
AcDbLine
10
-31.2012292485
20
-12.817885683
11
-33.0662292485
21
-9.58761092685
0
LINE
5
A2
100
AcDbEntity
8
axes
6
ByLayer
62
256
370
-1
100
AcDbLine
10
-33.0662292485
20
-9.58761092685
11
-27.6968717451
21
-6.48761092685
0
LINE
5
A3
100
AcDbEntity
8
axes
6
ByLayer
62
256
370
-1
100
AcDbLine
10
-27.6968717451
20
-6.48761092685
11
-19.4668717451
21
-20.7423890731
0
LINE
5
A4
100
AcDbEntity
8
axes
6
ByLayer
62
256
370
-1
100
AcDbLine
10
-19.4668717451
20
-20.7423890731
11
-24.8362292485
21
-23.8423890731
0
LINE
5
A5
100
AcDbEntity
8
axes
6
ByLayer
62
256
370
-1
100
AcDbLine
10
-24.8362292485
20
-23.8423890731
11
-26.7012292485
21
-20.612114317
0
LINE
5
A6
100
AcDbEntity
8
axes
6
ByLayer
62
256
370
-1
100
AcDbLine
10
-26.7012292485
20
-20.612114317
11
-28.0608891325
21
-21.397114317
0
LINE
5
A7
100
AcDbEntity
8
axes
6
ByLayer
62
256
370
-1
100
AcDbLine
10
-28.0608891325
20
-21.397114317
11
-21.5608891325
21
-32.6554445662
0
LINE
5
A8
100
AcDbEntity
8
axes
6
ByLayer
62
256
370
-1
100
AcDbLine
10
-21.5608891325
20
-32.6554445662
11
-10.3025588833
21
-26.1554445662
0
LINE
5
A9
100
AcDbEntity
8
axes
6
ByLayer
62
256
370
-1
100
AcDbLine
10
-10.3025588833
20
-26.1554445662
11
-11.0875588833
21
-24.7957846823
0
LINE
5
AA
100
AcDbEntity
8
axes
6
ByLayer
62
256
370
-1
100
AcDbLine
10
-11.0875588833
20
-24.7957846823
11
-14.3178336394
21
-26.6607846823
0
LINE
5
AB
100
AcDbEntity
8
axes
6
ByLayer
62
256
370
-1
100
AcDbLine
10
-14.3178336394
20
-26.6607846823
11
-17.4178336394
21
-21.2914271788
0
LINE
5
AC
100
AcDbEntity
8
axes
6
ByLayer
62
256
370
-1
100
AcDbLine
10
-17.4178336394
20
-21.2914271788
11
-3.16305549308
21
-13.0614271788
0
LINE
5
AD
100
AcDbEntity
8
axes
6
ByLayer
62
256
370
-1
100
AcDbLine
10
-3.16305549308
20
-13.0614271788
11
-0.0630554930817
21
-18.4307846823
0
LINE
5
AE
100
AcDbEntity
8
axes
6
ByLayer
62
256
370
-1
100
AcDbLine
10
-0.0630554930817
20
-18.4307846823
11
-3.2933302492
21
-20.2957846823
0
LINE
5
AF
100
AcDbEntity
8
axes
6
ByLayer
62
256
370
-1
100
AcDbLine
10
-3.2933302492
20
-20.2957846823
11
-2.5083302492
21
-21.6554445662
0
LINE
5
B0
100
AcDbEntity
8
axes
6
ByLayer
62
256
370
-1
100
AcDbLine
10
-2.5083302492
20
-21.6554445662
11
8.75
21
-15.1554445662
0
LINE
5
B1
100
AcDbEntity
8
axes
6
ByLayer
62
256
370
-1
100
AcDbLine
10
8.75
20
-15.1554445662
11
2.25
21
-3.89711431703
0
LINE
5
B2
100
AcDbEntity
8
axes
6
ByLayer
62
256
370
-1
100
AcDbLine
10
2.25
20
-3.89711431703
11
0.890340116058
21
-4.68211431703
0
LINE
5
B3
100
AcDbEntity
8
axes
6
ByLayer
62
256
370
-1
100
AcDbLine
10
0.890340116058
20
-4.68211431703
11
2.75534011606
21
-7.91238907315
0
LINE
5
B4
100
AcDbEntity
8
axes
6
ByLayer
62
256
370
-1
100
AcDbLine
10
2.75534011606
20
-7.91238907315
11
-2.61401738741
21
-11.0123890731
0
LINE
5
B5
100
AcDbEntity
8
axes
6
ByLayer
62
256
370
-1
100
AcDbLine
10
-2.61401738741
20
-11.0123890731
11
-10.8440173874
21
3.24238907315
0
LINE
5
B6
100
AcDbEntity
8
axes
6
ByLayer
62
256
370
-1
100
AcDbLine
10
-10.8440173874
20
3.24238907315
11
-5.47465988394
21
6.34238907315
0
LINE
5
B7
100
AcDbEntity
8
axes
6
ByLayer
62
256
370
-1
100
AcDbLine
10
-5.47465988394
20
6.34238907315
11
-3.60965988394
21
3.11211431703
0
LINE
5
B8
100
AcDbEntity
8
axes
6
ByLayer
62
256
370
-1
100
AcDbLine
10
-3.60965988394
20
3.11211431703
11
-2.25
21
3.89711431703
0
LINE
5
B9
100
AcDbEntity
8
axes
6
ByLayer
62
256
370
-1
100
AcDbLine
10
-2.25
20
3.89711431703
11
-8.75
21
15.1554445662
0
LINE
5
BA
100
AcDbEntity
8
axes
6
ByLayer
62
256
370
-1
100
AcDbLine
10
-20.0083302492
20
8.65544456623
11
-19.2233302492
21
7.29578468229
0
LINE
5
BB
100
AcDbEntity
8
axes
6
ByLayer
62
256
370
-1
100
AcDbLine
10
-19.2233302492
20
7.29578468229
11
-15.9930554931
21
9.16078468229
0
LINE
5
BC
100
AcDbEntity
8
axes
6
ByLayer
62
256
370
-1
100
AcDbLine
10
-15.9930554931
20
9.16078468229
11
-12.8930554931
21
3.79142717882
0
LINE
5
BD
100
AcDbEntity
8
axes
6
ByLayer
62
256
370
-1
100
AcDbLine
10
-12.8930554931
20
3.79142717882
11
-27.1478336394
21
-4.43857282118
0
LINE
5
BE
100
AcDbEntity
8
axes
6
ByLayer
62
256
370
-1
100
AcDbLine
10
-27.1478336394
20
-4.43857282118
11
-30.2478336394
21
0.930784682286
0
LINE
5
BF
100
AcDbEntity
8
axes
6
ByLayer
62
256
370
-1
100
AcDbLine
10
-30.2478336394
20
0.930784682286
11
-27.0175588833
21
2.79578468229
0
LINE
5
C0
100
AcDbEntity
8
axes
6
ByLayer
62
256
370
-1
100
AcDbLine
10
-36.9162292485
20
-2.91921531771
11
-31.5468717451
21
0.180784682286
0
LINE
5
C1
100
AcDbEntity
8
axes
6
ByLayer
62
256
370
-1
100
AcDbLine
10
-31.5468717451
20
0.180784682286
11
-28.4468717451
21
-5.18857282118
0
LINE
5
C2
100
AcDbEntity
8
axes
6
ByLayer
62
256
370
-1
100
AcDbLine
10
-28.4468717451
20
-5.18857282118
11
-33.8162292485
21
-8.28857282118
0
LINE
5
C3
100
AcDbEntity
8
axes
6
ByLayer
62
256
370
-1
100
AcDbLine
10
-33.8162292485
20
-8.28857282118
11
-36.9162292485
21
-2.91921531771
0
LINE
5
C4
100
AcDbEntity
8
axes
6
ByLayer
62
256
370
-1
100
AcDbLine
10
-14.6940173874
20
9.91078468229
11
-11.5940173874
21
4.54142717882
0
LINE
5
C5
100
AcDbEntity
8
axes
6
ByLayer
62
256
370
-1
100
AcDbLine
10
-11.5940173874
20
4.54142717882
11
-6.22465988394
21
7.64142717882
0
LINE
5
C6
100
AcDbEntity
8
axes
6
ByLayer
62
256
370
-1
100
AcDbLine
10
-6.22465988394
20
7.64142717882
11
-9.32465988394
21
13.0107846823
0
LINE
5
C7
100
AcDbEntity
8
axes
6
ByLayer
62
256
370
-1
100
AcDbLine
10
-9.32465988394
20
13.0107846823
11
-14.6940173874
21
9.91078468229
0
LINE
5
C8
100
AcDbEntity
8
axes
6
ByLayer
62
256
370
-1
100
AcDbLine
10
3.50534011606
20
-9.21142717882
11
6.60534011606
21
-14.5807846823
0
LINE
5
C9
100
AcDbEntity
8
axes
6
ByLayer
62
256
370
-1
100
AcDbLine
10
6.60534011606
20
-14.5807846823
11
1.23598261259
21
-17.6807846823
0
LINE
5
CA
100
AcDbEntity
8
axes
6
ByLayer
62
256
370
-1
100
AcDbLine
10
1.23598261259
20
-17.6807846823
11
-1.86401738741
21
-12.3114271788
0
LINE
5
CB
100
AcDbEntity
8
axes
6
ByLayer
62
256
370
-1
100
AcDbLine
10
-1.86401738741
20
-12.3114271788
11
3.50534011606
21
-9.21142717882
0
LINE
5
CC
100
AcDbEntity
8
axes
6
ByLayer
62
256
370
-1
100
AcDbLine
10
-18.7168717451
20
-22.0414271788
11
-24.0862292485
21
-25.1414271788
0
LINE
5
CD
100
AcDbEntity
8
axes
6
ByLayer
62
256
370
-1
100
AcDbLine
10
-24.0862292485
20
-25.1414271788
11
-20.9862292485
21
-30.5107846823
0
LINE
5
CE
100
AcDbEntity
8
axes
6
ByLayer
62
256
370
-1
100
AcDbLine
10
-20.9862292485
20
-30.5107846823
11
-15.6168717451
21
-27.4107846823
0
LINE
5
CF
100
AcDbEntity
8
axes
6
ByLayer
62
256
370
-1
100
AcDbLine
10
-15.6168717451
20
-27.4107846823
11
-18.7168717451
21
-22.0414271788
0
LINE
5
D0
100
AcDbEntity
8
axes
6
ByLayer
62
256
370
-1
100
AcDbLine
10
-26.3978336394
20
-5.73761092685
11
-18.1678336394
21
-19.9923890731
0
LINE
5
D1
100
AcDbEntity
8
axes
6
ByLayer
62
256
370
-1
100
AcDbLine
10
-18.1678336394
20
-19.9923890731
11
-3.91305549308
21
-11.7623890731
0
LINE
5
D2
100
AcDbEntity
8
axes
6
ByLayer
62
256
370
-1
100
AcDbLine
10
-3.91305549308
20
-11.7623890731
11
-12.1430554931
21
2.49238907315
0
LINE
5
D3
100
AcDbEntity
8
axes
6
ByLayer
62
256
370
-1
100
AcDbLine
10
-12.1430554931
20
2.49238907315
11
-26.3978336394
21
-5.73761092685
0
LINE
5
D4
100
AcDbEntity
8
axes
6
ByLayer
62
256
370
-1
100
AcDbLine
10
-8.75
20
15.1554445662
11
-20.0083302492
21
8.65544456623
0
LINE
5
D5
100
AcDbEntity
8
axes
6
ByLayer
62
256
370
-1
100
AcDbLine
10
697.017558883
20
2.79578468229
11
697.802558883
21
4.15544456623
0
LINE
5
D6
100
AcDbEntity
8
axes
6
ByLayer
62
256
370
-1
100
AcDbLine
10
697.802558883
20
4.15544456623
11
709.060889132
21
-2.34455543377
0
LINE
5
D7
100
AcDbEntity
8
axes
6
ByLayer
62
256
370
-1
100
AcDbLine
10
709.060889132
20
-2.34455543377
11
702.560889132
21
-13.602885683
0
LINE
5
D8
100
AcDbEntity
8
axes
6
ByLayer
62
256
370
-1
100
AcDbLine
10
702.560889132
20
-13.602885683
11
701.201229249
21
-12.817885683
0
LINE
5
D9
100
AcDbEntity
8
axes
6
ByLayer
62
256
370
-1
100
AcDbLine
10
701.201229249
20
-12.817885683
11
703.066229249
21
-9.58761092685
0
LINE
5
DA
100
AcDbEntity
8
axes
6
ByLayer
62
256
370
-1
100
AcDbLine
10
703.066229249
20
-9.58761092685
11
697.696871745
21
-6.48761092685
0
LINE
5
DB
100
AcDbEntity
8
axes
6
ByLayer
62
256
370
-1
100
AcDbLine
10
697.696871745
20
-6.48761092685
11
689.466871745
21
-20.7423890731
0
LINE
5
DC
100
AcDbEntity
8
axes
6
ByLayer
62
256
370
-1
100
AcDbLine
10
689.466871745
20
-20.7423890731
11
694.836229249
21
-23.8423890731
0
LINE
5
DD
100
AcDbEntity
8
axes
6
ByLayer
62
256
370
-1
100
AcDbLine
10
694.836229249
20
-23.8423890731
11
696.701229249
21
-20.612114317
0
LINE
5
DE
100
AcDbEntity
8
axes
6
ByLayer
62
256
370
-1
100
AcDbLine
10
696.701229249
20
-20.612114317
11
698.060889132
21
-21.397114317
0
LINE
5
DF
100
AcDbEntity
8
axes
6
ByLayer
62
256
370
-1
100
AcDbLine
10
698.060889132
20
-21.397114317
11
691.560889132
21
-32.6554445662
0
LINE
5
E0
100
AcDbEntity
8
axes
6
ByLayer
62
256
370
-1
100
AcDbLine
10
691.560889132
20
-32.6554445662
11
680.302558883
21
-26.1554445662
0
LINE
5
E1
100
AcDbEntity
8
axes
6
ByLayer
62
256
370
-1
100
AcDbLine
10
680.302558883
20
-26.1554445662
11
681.087558883
21
-24.7957846823
0
LINE
5
E2
100
AcDbEntity
8
axes
6
ByLayer
62
256
370
-1
100
AcDbLine
10
681.087558883
20
-24.7957846823
11
684.317833639
21
-26.6607846823
0
LINE
5
E3
100
AcDbEntity
8
axes
6
ByLayer
62
256
370
-1
100
AcDbLine
10
684.317833639
20
-26.6607846823
11
687.417833639
21
-21.2914271788
0
LINE
5
E4
100
AcDbEntity
8
axes
6
ByLayer
62
256
370
-1
100
AcDbLine
10
687.417833639
20
-21.2914271788
11
673.163055493
21
-13.0614271788
0
LINE
5
E5
100
AcDbEntity
8
axes
6
ByLayer
62
256
370
-1
100
AcDbLine
10
673.163055493
20
-13.0614271788
11
670.063055493
21
-18.4307846823
0
LINE
5
E6
100
AcDbEntity
8
axes
6
ByLayer
62
256
370
-1
100
AcDbLine
10
670.063055493
20
-18.4307846823
11
673.293330249
21
-20.2957846823
0
LINE
5
E7
100
AcDbEntity
8
axes
6
ByLayer
62
256
370
-1
100
AcDbLine
10
673.293330249
20
-20.2957846823
11
672.508330249
21
-21.6554445662
0
LINE
5
E8
100
AcDbEntity
8
axes
6
ByLayer
62
256
370
-1
100
AcDbLine
10
672.508330249
20
-21.6554445662
11
661.25
21
-15.1554445662
0
LINE
5
E9
100
AcDbEntity
8
axes
6
ByLayer
62
256
370
-1
100
AcDbLine
10
661.25
20
-15.1554445662
11
667.75
21
-3.89711431703
0
LINE
5
EA
100
AcDbEntity
8
axes
6
ByLayer
62
256
370
-1
100
AcDbLine
10
667.75
20
-3.89711431703
11
669.109659884
21
-4.68211431703
0
LINE
5
EB
100
AcDbEntity
8
axes
6
ByLayer
62
256
370
-1
100
AcDbLine
10
669.109659884
20
-4.68211431703
11
667.244659884
21
-7.91238907315
0
LINE
5
EC
100
AcDbEntity
8
axes
6
ByLayer
62
256
370
-1
100
AcDbLine
10
667.244659884
20
-7.91238907315
11
672.614017387
21
-11.0123890731
0
LINE
5
ED
100
AcDbEntity
8
axes
6
ByLayer
62
256
370
-1
100
AcDbLine
10
672.614017387
20
-11.0123890731
11
680.844017387
21
3.24238907315
0
LINE
5
EE
100
AcDbEntity
8
axes
6
ByLayer
62
256
370
-1
100
AcDbLine
10
680.844017387
20
3.24238907315
11
675.474659884
21
6.34238907315
0
LINE
5
EF
100
AcDbEntity
8
axes
6
ByLayer
62
256
370
-1
100
AcDbLine
10
675.474659884
20
6.34238907315
11
673.609659884
21
3.11211431703
0
LINE
5
F0
100
AcDbEntity
8
axes
6
ByLayer
62
256
370
-1
100
AcDbLine
10
673.609659884
20
3.11211431703
11
672.25
21
3.89711431703
0
LINE
5
F1
100
AcDbEntity
8
axes
6
ByLayer
62
256
370
-1
100
AcDbLine
10
672.25
20
3.89711431703
11
678.75
21
15.1554445662
0
LINE
5
F2
100
AcDbEntity
8
axes
6
ByLayer
62
256
370
-1
100
AcDbLine
10
690.008330249
20
8.65544456623
11
689.223330249
21
7.29578468229
0
LINE
5
F3
100
AcDbEntity
8
axes
6
ByLayer
62
256
370
-1
100
AcDbLine
10
689.223330249
20
7.29578468229
11
685.993055493
21
9.16078468229
0
LINE
5
F4
100
AcDbEntity
8
axes
6
ByLayer
62
256
370
-1
100
AcDbLine
10
685.993055493
20
9.16078468229
11
682.893055493
21
3.79142717882
0
LINE
5
F5
100
AcDbEntity
8
axes
6
ByLayer
62
256
370
-1
100
AcDbLine
10
682.893055493
20
3.79142717882
11
697.147833639
21
-4.43857282118
0
LINE
5
F6
100
AcDbEntity
8
axes
6
ByLayer
62
256
370
-1
100
AcDbLine
10
697.147833639
20
-4.43857282118
11
700.247833639
21
0.930784682286
0
LINE
5
F7
100
AcDbEntity
8
axes
6
ByLayer
62
256
370
-1
100
AcDbLine
10
700.247833639
20
0.930784682286
11
697.017558883
21
2.79578468229
0
LINE
5
F8
100
AcDbEntity
8
axes
6
ByLayer
62
256
370
-1
100
AcDbLine
10
706.916229249
20
-2.91921531771
11
701.546871745
21
0.180784682286
0
LINE
5
F9
100
AcDbEntity
8
axes
6
ByLayer
62
256
370
-1
100
AcDbLine
10
701.546871745
20
0.180784682286
11
698.446871745
21
-5.18857282118
0
LINE
5
FA
100
AcDbEntity
8
axes
6
ByLayer
62
256
370
-1
100
AcDbLine
10
698.446871745
20
-5.18857282118
11
703.816229249
21
-8.28857282118
0
LINE
5
FB
100
AcDbEntity
8
axes
6
ByLayer
62
256
370
-1
100
AcDbLine
10
703.816229249
20
-8.28857282118
11
706.916229249
21
-2.91921531771
0
LINE
5
FC
100
AcDbEntity
8
axes
6
ByLayer
62
256
370
-1
100
AcDbLine
10
684.694017387
20
9.91078468229
11
681.594017387
21
4.54142717882
0
LINE
5
FD
100
AcDbEntity
8
axes
6
ByLayer
62
256
370
-1
100
AcDbLine
10
681.594017387
20
4.54142717882
11
676.224659884
21
7.64142717882
0
LINE
5
FE
100
AcDbEntity
8
axes
6
ByLayer
62
256
370
-1
100
AcDbLine
10
676.224659884
20
7.64142717882
11
679.324659884
21
13.0107846823
0
LINE
5
FF
100
AcDbEntity
8
axes
6
ByLayer
62
256
370
-1
100
AcDbLine
10
679.324659884
20
13.0107846823
11
684.694017387
21
9.91078468229
0
LINE
5
100
100
AcDbEntity
8
axes
6
ByLayer
62
256
370
-1
100
AcDbLine
10
666.494659884
20
-9.21142717882
11
663.394659884
21
-14.5807846823
0
LINE
5
101
100
AcDbEntity
8
axes
6
ByLayer
62
256
370
-1
100
AcDbLine
10
663.394659884
20
-14.5807846823
11
668.764017387
21
-17.6807846823
0
LINE
5
102
100
AcDbEntity
8
axes
6
ByLayer
62
256
370
-1
100
AcDbLine
10
668.764017387
20
-17.6807846823
11
671.864017387
21
-12.3114271788
0
LINE
5
103
100
AcDbEntity
8
axes
6
ByLayer
62
256
370
-1
100
AcDbLine
10
671.864017387
20
-12.3114271788
11
666.494659884
21
-9.21142717882
0
LINE
5
104
100
AcDbEntity
8
axes
6
ByLayer
62
256
370
-1
100
AcDbLine
10
688.716871745
20
-22.0414271788
11
694.086229249
21
-25.1414271788
0
LINE
5
105
100
AcDbEntity
8
axes
6
ByLayer
62
256
370
-1
100
AcDbLine
10
694.086229249
20
-25.1414271788
11
690.986229249
21
-30.5107846823
0
LINE
5
106
100
AcDbEntity
8
axes
6
ByLayer
62
256
370
-1
100
AcDbLine
10
690.986229249
20
-30.5107846823
11
685.616871745
21
-27.4107846823
0
LINE
5
107
100
AcDbEntity
8
axes
6
ByLayer
62
256
370
-1
100
AcDbLine
10
685.616871745
20
-27.4107846823
11
688.716871745
21
-22.0414271788
0
LINE
5
108
100
AcDbEntity
8
axes
6
ByLayer
62
256
370
-1
100
AcDbLine
10
696.397833639
20
-5.73761092685
11
688.167833639
21
-19.9923890731
0
LINE
5
109
100
AcDbEntity
8
axes
6
ByLayer
62
256
370
-1
100
AcDbLine
10
688.167833639
20
-19.9923890731
11
673.913055493
21
-11.7623890731
0
LINE
5
10A
100
AcDbEntity
8
axes
6
ByLayer
62
256
370
-1
100
AcDbLine
10
673.913055493
20
-11.7623890731
11
682.143055493
21
2.49238907315
0
LINE
5
10B
100
AcDbEntity
8
axes
6
ByLayer
62
256
370
-1
100
AcDbLine
10
682.143055493
20
2.49238907315
11
696.397833639
21
-5.73761092685
0
LINE
5
10C
100
AcDbEntity
8
axes
6
ByLayer
62
256
370
-1
100
AcDbLine
10
678.75
20
15.1554445662
11
690.008330249
21
8.65544456623
0
LINE
5
10D
100
AcDbEntity
8
axes
6
ByLayer
62
256
370
-1
100
AcDbLine
10
319.07
20
602.237020536
11
317.5
21
602.237020536
0
LINE
5
10E
100
AcDbEntity
8
axes
6
ByLayer
62
256
370
-1
100
AcDbLine
10
317.5
20
602.237020536
11
317.5
21
615.237020536
0
LINE
5
10F
100
AcDbEntity
8
axes
6
ByLayer
62
256
370
-1
100
AcDbLine
10
317.5
20
615.237020536
11
330.5
21
615.237020536
0
LINE
5
110
100
AcDbEntity
8
axes
6
ByLayer
62
256
370
-1
100
AcDbLine
10
330.5
20
615.237020536
11
330.5
21
613.667020536
0
LINE
5
111
100
AcDbEntity
8
axes
6
ByLayer
62
256
370
-1
100
AcDbLine
10
330.5
20
613.667020536
11
326.77
21
613.667020536
0
LINE
5
112
100
AcDbEntity
8
axes
6
ByLayer
62
256
370
-1
100
AcDbLine
10
326.77
20
613.667020536
11
326.77
21
607.467020536
0
LINE
5
113
100
AcDbEntity
8
axes
6
ByLayer
62
256
370
-1
100
AcDbLine
10
326.77
20
607.467020536
11
343.23
21
607.467020536
0
LINE
5
114
100
AcDbEntity
8
axes
6
ByLayer
62
256
370
-1
100
AcDbLine
10
343.23
20
607.467020536
11
343.23
21
613.667020536
0
LINE
5
115
100
AcDbEntity
8
axes
6
ByLayer
62
256
370
-1
100
AcDbLine
10
343.23
20
613.667020536
11
339.5
21
613.667020536
0
LINE
5
116
100
AcDbEntity
8
axes
6
ByLayer
62
256
370
-1
100
AcDbLine
10
339.5
20
613.667020536
11
339.5
21
615.237020536
0
LINE
5
117
100
AcDbEntity
8
axes
6
ByLayer
62
256
370
-1
100
AcDbLine
10
339.5
20
615.237020536
11
352.5
21
615.237020536
0
LINE
5
118
100
AcDbEntity
8
axes
6
ByLayer
62
256
370
-1
100
AcDbLine
10
352.5
20
615.237020536
11
352.5
21
602.237020536
0
LINE
5
119
100
AcDbEntity
8
axes
6
ByLayer
62
256
370
-1
100
AcDbLine
10
352.5
20
602.237020536
11
350.93
21
602.237020536
0
LINE
5
11A
100
AcDbEntity
8
axes
6
ByLayer
62
256
370
-1
100
AcDbLine
10
350.93
20
602.237020536
11
350.93
21
605.967020536
0
LINE
5
11B
100
AcDbEntity
8
axes
6
ByLayer
62
256
370
-1
100
AcDbLine
10
350.93
20
605.967020536
11
344.73
21
605.967020536
0
LINE
5
11C
100
AcDbEntity
8
axes
6
ByLayer
62
256
370
-1
100
AcDbLine
10
344.73
20
605.967020536
11
344.73
21
589.507020536
0
LINE
5
11D
100
AcDbEntity
8
axes
6
ByLayer
62
256
370
-1
100
AcDbLine
10
344.73
20
589.507020536
11
350.93
21
589.507020536
0
LINE
5
11E
100
AcDbEntity
8
axes
6
ByLayer
62
256
370
-1
100
AcDbLine
10
350.93
20
589.507020536
11
350.93
21
593.237020536
0
LINE
5
11F
100
AcDbEntity
8
axes
6
ByLayer
62
256
370
-1
100
AcDbLine
10
350.93
20
593.237020536
11
352.5
21
593.237020536
0
LINE
5
120
100
AcDbEntity
8
axes
6
ByLayer
62
256
370
-1
100
AcDbLine
10
352.5
20
593.237020536
11
352.5
21
580.237020536
0
LINE
5
121
100
AcDbEntity
8
axes
6
ByLayer
62
256
370
-1
100
AcDbLine
10
352.5
20
580.237020536
11
339.5
21
580.237020536
0
LINE
5
122
100
AcDbEntity
8
axes
6
ByLayer
62
256
370
-1
100
AcDbLine
10
339.5
20
580.237020536
11
339.5
21
581.807020536
0
LINE
5
123
100
AcDbEntity
8
axes
6
ByLayer
62
256
370
-1
100
AcDbLine
10
339.5
20
581.807020536
11
343.23
21
581.807020536
0
LINE
5
124
100
AcDbEntity
8
axes
6
ByLayer
62
256
370
-1
100
AcDbLine
10
343.23
20
581.807020536
11
343.23
21
588.007020536
0
LINE
5
125
100
AcDbEntity
8
axes
6
ByLayer
62
256
370
-1
100
AcDbLine
10
343.23
20
588.007020536
11
326.77
21
588.007020536
0
LINE
5
126
100
AcDbEntity
8
axes
6
ByLayer
62
256
370
-1
100
AcDbLine
10
326.77
20
588.007020536
11
326.77
21
581.807020536
0
LINE
5
127
100
AcDbEntity
8
axes
6
ByLayer
62
256
370
-1
100
AcDbLine
10
326.77
20
581.807020536
11
330.5
21
581.807020536
0
LINE
5
128
100
AcDbEntity
8
axes
6
ByLayer
62
256
370
-1
100
AcDbLine
10
330.5
20
581.807020536
11
330.5
21
580.237020536
0
LINE
5
129
100
AcDbEntity
8
axes
6
ByLayer
62
256
370
-1
100
AcDbLine
10
330.5
20
580.237020536
11
317.5
21
580.237020536
0
LINE
5
12A
100
AcDbEntity
8
axes
6
ByLayer
62
256
370
-1
100
AcDbLine
10
317.5
20
593.237020536
11
319.07
21
593.237020536
0
LINE
5
12B
100
AcDbEntity
8
axes
6
ByLayer
62
256
370
-1
100
AcDbLine
10
319.07
20
593.237020536
11
319.07
21
589.507020536
0
LINE
5
12C
100
AcDbEntity
8
axes
6
ByLayer
62
256
370
-1
100
AcDbLine
10
319.07
20
589.507020536
11
325.27
21
589.507020536
0
LINE
5
12D
100
AcDbEntity
8
axes
6
ByLayer
62
256
370
-1
100
AcDbLine
10
325.27
20
589.507020536
11
325.27
21
605.967020536
0
LINE
5
12E
100
AcDbEntity
8
axes
6
ByLayer
62
256
370
-1
100
AcDbLine
10
325.27
20
605.967020536
11
319.07
21
605.967020536
0
LINE
5
12F
100
AcDbEntity
8
axes
6
ByLayer
62
256
370
-1
100
AcDbLine
10
319.07
20
605.967020536
11
319.07
21
602.237020536
0
LINE
5
130
100
AcDbEntity
8
axes
6
ByLayer
62
256
370
-1
100
AcDbLine
10
319.07
20
613.667020536
11
319.07
21
607.467020536
0
LINE
5
131
100
AcDbEntity
8
axes
6
ByLayer
62
256
370
-1
100
AcDbLine
10
319.07
20
607.467020536
11
325.27
21
607.467020536
0
LINE
5
132
100
AcDbEntity
8
axes
6
ByLayer
62
256
370
-1
100
AcDbLine
10
325.27
20
607.467020536
11
325.27
21
613.667020536
0
LINE
5
133
100
AcDbEntity
8
axes
6
ByLayer
62
256
370
-1
100
AcDbLine
10
325.27
20
613.667020536
11
319.07
21
613.667020536
0
LINE
5
134
100
AcDbEntity
8
axes
6
ByLayer
62
256
370
-1
100
AcDbLine
10
319.07
20
588.007020536
11
325.27
21
588.007020536
0
LINE
5
135
100
AcDbEntity
8
axes
6
ByLayer
62
256
370
-1
100
AcDbLine
10
325.27
20
588.007020536
11
325.27
21
581.807020536
0
LINE
5
136
100
AcDbEntity
8
axes
6
ByLayer
62
256
370
-1
100
AcDbLine
10
325.27
20
581.807020536
11
319.07
21
581.807020536
0
LINE
5
137
100
AcDbEntity
8
axes
6
ByLayer
62
256
370
-1
100
AcDbLine
10
319.07
20
581.807020536
11
319.07
21
588.007020536
0
LINE
5
138
100
AcDbEntity
8
axes
6
ByLayer
62
256
370
-1
100
AcDbLine
10
344.73
20
581.807020536
11
350.93
21
581.807020536
0
LINE
5
139
100
AcDbEntity
8
axes
6
ByLayer
62
256
370
-1
100
AcDbLine
10
350.93
20
581.807020536
11
350.93
21
588.007020536
0
LINE
5
13A
100
AcDbEntity
8
axes
6
ByLayer
62
256
370
-1
100
AcDbLine
10
350.93
20
588.007020536
11
344.73
21
588.007020536
0
LINE
5
13B
100
AcDbEntity
8
axes
6
ByLayer
62
256
370
-1
100
AcDbLine
10
344.73
20
588.007020536
11
344.73
21
581.807020536
0
LINE
5
13C
100
AcDbEntity
8
axes
6
ByLayer
62
256
370
-1
100
AcDbLine
10
344.73
20
607.467020536
11
344.73
21
613.667020536
0
LINE
5
13D
100
AcDbEntity
8
axes
6
ByLayer
62
256
370
-1
100
AcDbLine
10
344.73
20
613.667020536
11
350.93
21
613.667020536
0
LINE
5
13E
100
AcDbEntity
8
axes
6
ByLayer
62
256
370
-1
100
AcDbLine
10
350.93
20
613.667020536
11
350.93
21
607.467020536
0
LINE
5
13F
100
AcDbEntity
8
axes
6
ByLayer
62
256
370
-1
100
AcDbLine
10
350.93
20
607.467020536
11
344.73
21
607.467020536
0
LINE
5
140
100
AcDbEntity
8
axes
6
ByLayer
62
256
370
-1
100
AcDbLine
10
326.77
20
605.967020536
11
343.23
21
605.967020536
0
LINE
5
141
100
AcDbEntity
8
axes
6
ByLayer
62
256
370
-1
100
AcDbLine
10
343.23
20
605.967020536
11
343.23
21
589.507020536
0
LINE
5
142
100
AcDbEntity
8
axes
6
ByLayer
62
256
370
-1
100
AcDbLine
10
343.23
20
589.507020536
11
326.77
21
589.507020536
0
LINE
5
143
100
AcDbEntity
8
axes
6
ByLayer
62
256
370
-1
100
AcDbLine
10
326.77
20
589.507020536
11
326.77
21
605.967020536
0
LINE
5
144
100
AcDbEntity
8
axes
6
ByLayer
62
256
370
-1
100
AcDbLine
10
317.5
20
580.237020536
11
317.5
21
593.237020536
0
LINE
5
145
100
AcDbEntity
8
liteaux
6
ByLayer
62
256
370
-1
100
AcDbLine
10
11.75
20
-50.1554445662
11
11.75
21
-15.1554445662
0
LINE
5
146
100
AcDbEntity
8
liteaux
6
ByLayer
62
256
370
-1
100
AcDbLine
10
658.25
20
-50.1554445662
11
658.25
21
-15.1554445662
0
LINE
5
147
100
AcDbEntity
8
liteaux
6
ByLayer
62
256
370
-1
100
AcDbLine
10
11.75
20
-15.1554445662
11
658.25
21
-15.1554445662
0
LINE
5
148
100
AcDbEntity
8
liteaux
6
ByLayer
62
256
370
-1
100
AcDbLine
10
11.75
20
-50.1554445662
11
658.25
21
-50.1554445662
0
LINE
5
149
100
AcDbEntity
8
liteaux
6
ByLayer
62
256
370
-1
100
AcDbLine
10
384.310889133
20
595.138944324
11
354
21
577.638944324
0
LINE
5
14A
100
AcDbEntity
8
liteaux
6
ByLayer
62
256
370
-1
100
AcDbLine
10
707.560889132
20
35.2535207775
11
677.25
21
17.7535207776
0
LINE
5
14B
100
AcDbEntity
8
liteaux
6
ByLayer
62
256
370
-1
100
AcDbLine
10
354
20
577.638944324
11
677.25
21
17.7535207776
0
LINE
5
14C
100
AcDbEntity
8
liteaux
6
ByLayer
62
256
370
-1
100
AcDbLine
10
384.310889133
20
595.138944324
11
707.560889132
21
35.2535207775
0
LINE
5
14D
100
AcDbEntity
8
liteaux
6
ByLayer
62
256
370
-1
100
AcDbLine
10
285.689110867
20
595.138944324
11
316
21
577.638944324
0
LINE
5
14E
100
AcDbEntity
8
liteaux
6
ByLayer
62
256
370
-1
100
AcDbLine
10
-37.5608891324
20
35.2535207775
11
-7.24999999998
21
17.7535207776
0
LINE
5
14F
100
AcDbEntity
8
liteaux
6
ByLayer
62
256
370
-1
100
AcDbLine
10
316
20
577.638944324
11
-7.24999999998
21
17.7535207776
0
LINE
5
150
100
AcDbEntity
8
liteaux
6
ByLayer
62
256
370
-1
100
AcDbLine
10
285.689110867
20
595.138944324
11
-37.5608891324
21
35.2535207775
0
ENDSEC
0
SECTION
2
OBJECTS
0
DICTIONARY
5
C
330
0
100
AcDbDictionary
281
1
3
ACAD_GROUP
350
D
0
DICTIONARY
5
D
330
C
100
AcDbDictionary
281
1
0
ENDSEC
0
EOF
