999
dxfrw 0.5.11
0
SECTION
2
HEADER
9
$ACADVER
1
AC1021
9
$HANDSEED
5
20000
9
$DWGCODEPAGE
3
ANSI_1252
9
$INSBASE
10
0
20
0
30
0
9
$EXTMIN
10
-79.2462120246
20
-154.49242405
30
0
9
$EXTMAX
10
80.9533188058
20
7
30
0
9
$LIMMIN
10
0
20
0
9
$LIMMAX
10
420
20
297
9
$ORTHOMODE
70
0
9
$LTSCALE
40
1
9
$TEXTSTYLE
7
STANDARD
9
$CLAYER
8
hole2
9
$DIMASZ
40
2.5
9
$DIMLFAC
40
1
9
$DIMSCALE
40
1
9
$DIMEXO
40
0.625
9
$DIMEXE
40
1.25
9
$DIMTXT
40
2.5
9
$DIMTSZ
40
0
9
$DIMAUNIT
70
0
9
$DIMADEC
70
2
9
$DIMLUNIT
70
2
9
$DIMSTYLE
2
STANDARD
9
$DIMGAP
40
0.625
9
$DIMTIH
70
0
9
$LUNITS
70
2
9
$LUPREC
70
4
9
$AUNITS
70
0
9
$AUPREC
70
2
9
$SPLINESEGS
70
8
9
$GRIDMODE
70
1
9
$SNAPSTYLE
70
0
9
$GRIDUNIT
10
0
20
0
9
$PINSBASE
10
0
20
0
30
0
9
$PLIMMIN
10
0
20
0
9
$PLIMMAX
10
210
20
297
9
$INSUNITS
70
4
9
$PSVPSCALE
40
1
0
ENDSEC
0
SECTION
2
CLASSES
0
ENDSEC
0
SECTION
2
TABLES
0
TABLE
2
VPORT
5
8
330
0
100
AcDbSymbolTable
70
1
0
VPORT
5
31
330
2
100
AcDbSymbolTableRecord
100
AcDbViewportTableRecord
2
*ACTIVE
70
0
10
0
20
0
11
1
21
1
12
38.5577757757
22
7.53890839793
13
0
23
0
14
10
24
10
15
10
25
10
16
0
26
0
36
1
17
0
27
0
37
0
40
93.5745424049
41
1.59286592866
42
50
43
0
44
0
50
0
51
0
71
0
72
100
73
1
74
3
75
0
76
1
77
0
78
0
281
0
65
1
110
0
120
0
130
0
111
1
121
0
131
0
112
0
122
1
132
0
79
0
146
0
348
10020
60
7
61
5
292
1
282
1
141
0
142
0
63
250
421
3358443
0
ENDTAB
0
TABLE
2
LTYPE
5
5
330
0
100
AcDbSymbolTable
70
4
0
LTYPE
5
14
330
5
100
AcDbSymbolTableRecord
100
AcDbLinetypeTableRecord
2
ByBlock
70
0
3

72
65
73
0
40
0
0
LTYPE
5
15
330
5
100
AcDbSymbolTableRecord
100
AcDbLinetypeTableRecord
2
ByLayer
70
0
3

72
65
73
0
40
0
0
LTYPE
5
16
330
5
100
AcDbSymbolTableRecord
100
AcDbLinetypeTableRecord
2
Continuous
70
0
3
Solid line
72
65
73
0
40
0
0
LTYPE
5
32
330
5
100
AcDbSymbolTableRecord
100
AcDbLinetypeTableRecord
2
DOT
70
0
3
Dot . . . . . . . . . . . . . . . . . . . . . .
72
65
73
2
40
6.35
49
0
74
0
49
-6.35
74
0
0
LTYPE
5
33
330
5
100
AcDbSymbolTableRecord
100
AcDbLinetypeTableRecord
2
DOT2
70
0
3
Dot (.5x) .....................................
72
65
73
2
40
3.175
49
0
74
0
49
-3.175
74
0
0
LTYPE
5
34
330
5
100
AcDbSymbolTableRecord
100
AcDbLinetypeTableRecord
2
DOTX2
70
0
3
Dot (2x) .  .  .  .  .  .  .  .  .  .  .  .  .
72
65
73
2
40
12.7
49
0
74
0
49
-12.7
74
0
0
LTYPE
5
35
330
5
100
AcDbSymbolTableRecord
100
AcDbLinetypeTableRecord
2
DASHED
70
0
3
Dot . . . . . . . . . . . . . . . . . . . . . .
72
65
73
2
40
19.05
49
12.7
74
0
49
-6.35
74
0
0
LTYPE
5
36
330
5
100
AcDbSymbolTableRecord
100
AcDbLinetypeTableRecord
2
DASHED2
70
0
3
Dashed (.5x) _ _ _ _ _ _ _ _ _ _ _ _ _ _ _ _ _
72
65
73
2
40
9.525
49
6.35
74
0
49
-3.175
74
0
0
LTYPE
5
37
330
5
100
AcDbSymbolTableRecord
100
AcDbLinetypeTableRecord
2
DASHEDX2
70
0
3
Dashed (2x) ____  ____  ____  ____  ____  ___
72
65
73
2
40
38.1
49
25.4
74
0
49
-12.7
74
0
0
LTYPE
5
38
330
5
100
AcDbSymbolTableRecord
100
AcDbLinetypeTableRecord
2
DASHDOT
70
0
3
Dash dot __ . __ . __ . __ . __ . __ . __ . __
72
65
73
4
40
25.4
49
12.7
74
0
49
-6.35
74
0
49
0
74
0
49
-6.35
74
0
0
LTYPE
5
39
330
5
100
AcDbSymbolTableRecord
100
AcDbLinetypeTableRecord
2
DASHDOT2
70
0
3
Dash dot (.5x) _._._._._._._._._._._._._._._.
72
65
73
4
40
12.7
49
6.35
74
0
49
-3.175
74
0
49
0
74
0
49
-3.175
74
0
0
LTYPE
5
3A
330
5
100
AcDbSymbolTableRecord
100
AcDbLinetypeTableRecord
2
DASHDOTX2
70
0
3
Dash dot (2x) ____  .  ____  .  ____  .  ___
72
65
73
4
40
50.8
49
25.4
74
0
49
-12.7
74
0
49
0
74
0
49
-12.7
74
0
0
LTYPE
5
3B
330
5
100
AcDbSymbolTableRecord
100
AcDbLinetypeTableRecord
2
DIVIDE
70
0
3
Divide ____ . . ____ . . ____ . . ____ . . ____
72
65
73
6
40
31.75
49
12.7
74
0
49
-6.35
74
0
49
0
74
0
49
-6.35
74
0
49
0
74
0
49
-6.35
74
0
0
LTYPE
5
3C
330
5
100
AcDbSymbolTableRecord
100
AcDbLinetypeTableRecord
2
DIVIDE2
70
0
3
Divide (.5x) __..__..__..__..__..__..__..__.._
72
65
73
6
40
15.875
49
6.35
74
0
49
-3.175
74
0
49
0
74
0
49
-3.175
74
0
49
0
74
0
49
-3.175
74
0
0
LTYPE
5
3D
330
5
100
AcDbSymbolTableRecord
100
AcDbLinetypeTableRecord
2
DIVIDEX2
70
0
3
Divide (2x) ________  .  .  ________  .  .  _
72
65
73
6
40
63.5
49
25.4
74
0
49
-12.7
74
0
49
0
74
0
49
-12.7
74
0
49
0
74
0
49
-12.7
74
0
0
LTYPE
5
3E
330
5
100
AcDbSymbolTableRecord
100
AcDbLinetypeTableRecord
2
BORDER
70
0
3
Border __ __ . __ __ . __ __ . __ __ . __ __ .
72
65
73
6
40
44.45
49
12.7
74
0
49
-6.35
74
0
49
12.7
74
0
49
-6.35
74
0
49
0
74
0
49
-6.35
74
0
0
LTYPE
5
3F
330
5
100
AcDbSymbolTableRecord
100
AcDbLinetypeTableRecord
2
BORDER2
70
0
3
Border (.5x) __.__.__.__.__.__.__.__.__.__.__.
72
65
73
6
40
22.225
49
6.35
74
0
49
-3.175
74
0
49
6.35
74
0
49
-3.175
74
0
49
0
74
0
49
-3.175
74
0
0
LTYPE
5
40
330
5
100
AcDbSymbolTableRecord
100
AcDbLinetypeTableRecord
2
BORDERX2
70
0
3
Border (2x) ____  ____  .  ____  ____  .  ___
72
65
73
6
40
88.9
49
25.4
74
0
49
-12.7
74
0
49
25.4
74
0
49
-12.7
74
0
49
0
74
0
49
-12.7
74
0
0
LTYPE
5
41
330
5
100
AcDbSymbolTableRecord
100
AcDbLinetypeTableRecord
2
CENTER
70
0
3
Center ____ _ ____ _ ____ _ ____ _ ____ _ ____
72
65
73
4
40
50.8
49
31.75
74
0
49
-6.35
74
0
49
6.35
74
0
49
-6.35
74
0
0
LTYPE
5
42
330
5
100
AcDbSymbolTableRecord
100
AcDbLinetypeTableRecord
2
CENTER2
70
0
3
Center (.5x) ___ _ ___ _ ___ _ ___ _ ___ _ ___
72
65
73
4
40
28.575
49
19.05
74
0
49
-3.175
74
0
49
3.175
74
0
49
-3.175
74
0
0
LTYPE
5
43
330
5
100
AcDbSymbolTableRecord
100
AcDbLinetypeTableRecord
2
CENTERX2
70
0
3
Center (2x) ________  __  ________  __  _____
72
65
73
4
40
101.6
49
63.5
74
0
49
-12.7
74
0
49
12.7
74
0
49
-12.7
74
0
0
ENDTAB
0
TABLE
2
LAYER
5
2
330
0
100
AcDbSymbolTable
70
1
0
LAYER
5
10
330
2
100
AcDbSymbolTableRecord
100
AcDbLayerTableRecord
2
0
70
0
62
7
6
CONTINUOUS
370
0
390
F
0
LAYER
5
44
330
2
100
AcDbSymbolTableRecord
100
AcDbLayerTableRecord
2
1
70
0
62
7
6
CONTINUOUS
370
0
390
F
0
LAYER
5
45
330
2
100
AcDbSymbolTableRecord
100
AcDbLayerTableRecord
2
anode-cathode-hole
70
0
62
7
6
CONTINUOUS
370
0
390
F
0
LAYER
5
46
330
2
100
AcDbSymbolTableRecord
100
AcDbLayerTableRecord
2
hole2
70
0
62
7
6
CONTINUOUS
370
0
390
F
0
ENDTAB
0
TABLE
2
STYLE
5
3
330
0
100
AcDbSymbolTable
70
3
0
STYLE
5
47
330
2
100
AcDbSymbolTableRecord
100
AcDbTextStyleTableRecord
2
Standard
70
0
40
0
41
1
50
0
71
0
42
1
3
txt
4

0
ENDTAB
0
TABLE
2
VIEW
5
6
330
0
100
AcDbSymbolTable
70
0
0
ENDTAB
0
TABLE
2
UCS
5
7
330
0
100
AcDbSymbolTable
70
0
0
ENDTAB
0
TABLE
2
APPID
5
9
330
0
100
AcDbSymbolTable
70
1
0
APPID
5
12
330
9
100
AcDbSymbolTableRecord
100
AcDbRegAppTableRecord
2
ACAD
70
0
0
ENDTAB
0
TABLE
2
DIMSTYLE
5
A
330
0
100
AcDbSymbolTable
70
1
100
AcDbDimStyleTable
71
1
0
DIMSTYLE
105
48
330
A
100
AcDbSymbolTableRecord
100
AcDbDimStyleTableRecord
2
Standard
70
0
40
1
41
2.5
42
0.625
43
0.38
44
1.25
45
0
46
0
47
0
48
0
140
2.5
141
0.09
142
0
143
25.4
144
1
145
0
146
1
147
0.625
148
0
71
0
72
0
73
0
74
1
75
0
76
0
77
0
78
0
79
0
170
0
171
2
172
0
173
0
174
0
175
0
176
0
177
0
178
0
179
0
271
4
272
4
273
2
274
2
275
0
276
0
277
2
278
46
279
0
280
0
281
0
282
0
283
1
284
0
285
0
286
0
288
0
289
3
340
Standard
341

371
-2
372
-2
0
ENDTAB
0
TABLE
2
BLOCK_RECORD
5
1
330
0
100
AcDbSymbolTable
70
2
0
BLOCK_RECORD
5
1F
330
1
100
AcDbSymbolTableRecord
100
AcDbBlockTableRecord
2
*Model_Space
70
0
280
1
281
0
0
BLOCK_RECORD
5
1E
330
1
100
AcDbSymbolTableRecord
100
AcDbBlockTableRecord
2
*Paper_Space
70
0
280
1
281
0
0
ENDTAB
0
ENDSEC
0
SECTION
2
BLOCKS
0
BLOCK
5
20
330
1F
100
AcDbEntity
8
0
100
AcDbBlockBegin
2
*Model_Space
70
0
10
0
20
0
30
0
3
*Model_Space
1

0
ENDBLK
5
21
330
1F
100
AcDbEntity
8
0
100
AcDbBlockEnd
0
BLOCK
5
1C
330
1B
100
AcDbEntity
8
0
100
AcDbBlockBegin
2
*Paper_Space
70
0
10
0
20
0
30
0
3
*Paper_Space
1

0
ENDBLK
5
1D
330
1F
100
AcDbEntity
8
0
100
AcDbBlockEnd
0
ENDSEC
0
SECTION
2
ENTITIES
0
LINE
5
49
100
AcDbEntity
8
0
6
ByLayer
62
256
370
-1
100
AcDbLine
10
-1.5
20
7
11
1.5
21
7
0
LINE
5
4A
100
AcDbEntity
8
1
6
ByLayer
62
256
370
-1
100
AcDbLine
10
-1.5
20
7
11
1.5
21
7
0
LINE
5
4B
100
AcDbEntity
8
1
6
ByLayer
62
256
370
-1
100
AcDbLine
10
-1.5
20
7
11
-1.5
21
4
0
LINE
5
4C
100
AcDbEntity
8
1
6
ByLayer
62
256
370
-1
100
AcDbLine
10
1.5
20
7
11
1.5
21
4
0
ARC
5
4D
100
AcDbEntity
8
0
6
ByLayer
62
256
370
-1
100
AcDbCircle
10
-4
20
4
40
1
100
AcDbArc
50
90
51
180
0
LINE
5
4E
100
AcDbEntity
8
anode-cathode-hole
6
ByLayer
62
256
370
-1
100
AcDbLine
10
-0.6
20
1.59059737206
11
0.6
21
1.59059737206
0
LINE
5
4F
100
AcDbEntity
8
1
6
ByLayer
62
256
370
-1
100
AcDbLine
10
-1.5
20
4
11
-0.6
21
4
0
LINE
5
50
100
AcDbEntity
8
1
6
ByLayer
62
256
370
-1
100
AcDbLine
10
0.6
20
5
11
0.6
21
4
0
LINE
5
51
100
AcDbEntity
8
1
6
ByLayer
62
256
370
-1
100
AcDbLine
10
0.6
20
4
11
1.5
21
4
0
LINE
5
52
100
AcDbEntity
8
1
6
ByLayer
62
256
370
-1
100
AcDbLine
10
0.6
20
5
11
-0.6
21
5
0
LINE
5
53
100
AcDbEntity
8
1
6
ByLayer
62
256
370
-1
100
AcDbLine
10
-0.6
20
5
11
-0.6
21
4
0
LINE
5
54
100
AcDbEntity
8
anode-cathode-hole
6
ByLayer
62
256
370
-1
100
AcDbLine
10
0.6
20
5
11
0.6
21
1.59059737206
0
LINE
5
55
100
AcDbEntity
8
anode-cathode-hole
6
ByLayer
62
256
370
-1
100
AcDbLine
10
-0.6
20
5
11
-0.6
21
1.59059737206
0
LINE
5
56
100
AcDbEntity
8
anode-cathode-hole
6
ByLayer
62
256
370
-1
100
AcDbLine
10
-0.6
20
5
11
0.6
21
5
0
LINE
5
57
100
AcDbEntity
8
0
6
ByLayer
62
256
370
-1
100
AcDbLine
10
-1.5
20
7
11
-1.5
21
6
0
LINE
5
58
100
AcDbEntity
8
0
6
ByLayer
62
256
370
-1
100
AcDbLine
10
-2.5
20
5
11
-4
21
5
0
ARC
5
59
100
AcDbEntity
8
0
6
ByLayer
62
256
370
-1
100
AcDbCircle
10
-2.5
20
6
40
1
100
AcDbArc
50
270
51
0
0
CIRCLE
5
5A
100
AcDbEntity
8
0
6
ByLayer
62
256
370
-1
100
AcDbCircle
10
0
20
0
40
2
0
ARC
5
5B
100
AcDbEntity
8
0
6
ByLayer
62
256
370
-1
100
AcDbCircle
10
8.41421356237
20
-0.757359312881
40
3.41421356237
100
AcDbArc
50
180
51
225
0
ARC
5
5C
100
AcDbEntity
8
0
6
ByLayer
62
256
370
-1
100
AcDbCircle
10
4
20
4
40
1
100
AcDbArc
50
0
51
90
0
LINE
5
5D
100
AcDbEntity
8
0
6
ByLayer
62
256
370
-1
100
AcDbLine
10
5
20
4
11
5
21
-0.757359312881
0
ARC
5
5E
100
AcDbEntity
8
0
6
ByLayer
62
256
370
-1
100
AcDbCircle
10
0.757359312871
20
-8.41421356239
40
3.41421356239
100
AcDbArc
50
45.0000000002
51
90
0
LINE
5
5F
100
AcDbEntity
8
0
6
ByLayer
62
256
370
-1
100
AcDbLine
10
4
20
5
11
2.5
21
5
0
LINE
5
60
100
AcDbEntity
8
0
6
ByLayer
62
256
370
-1
100
AcDbLine
10
1.5
20
7
11
1.5
21
6
0
ARC
5
61
100
AcDbEntity
8
0
6
ByLayer
62
256
370
-1
100
AcDbCircle
10
2.5
20
6
40
1
100
AcDbArc
50
180
51
270
0
LINE
5
62
100
AcDbEntity
8
anode-cathode-hole
6
ByLayer
62
256
370
-1
100
AcDbLine
10
1.54898625663
20
-0.700458119208
11
0.700458119208
21
-1.54898625663
0
LINE
5
63
100
AcDbEntity
8
0
6
ByLayer
62
256
370
-1
100
AcDbLine
10
9.1066017178
20
-3.6066017178
11
12.1066017178
21
-3.6066017178
0
CIRCLE
5
64
100
AcDbEntity
8
0
6
ByLayer
62
256
370
-1
100
AcDbCircle
10
10.6066017178
20
-10.6066017178
40
2
0
ARC
5
65
100
AcDbEntity
8
0
6
ByLayer
62
256
370
-1
100
AcDbCircle
10
19.0208152802
20
-11.3639610307
40
3.41421356237
100
AcDbArc
50
180
51
225
0
ARC
5
66
100
AcDbEntity
8
0
6
ByLayer
62
256
370
-1
100
AcDbCircle
10
14.6066017178
20
-6.6066017178
40
1
100
AcDbArc
50
0
51
90
0
LINE
5
67
100
AcDbEntity
8
0
6
ByLayer
62
256
370
-1
100
AcDbLine
10
15.6066017178
20
-6.6066017178
11
15.6066017178
21
-11.3639610307
0
ARC
5
68
100
AcDbEntity
8
0
6
ByLayer
62
256
370
-1
100
AcDbCircle
10
11.3639610307
20
-19.0208152802
40
3.41421356239
100
AcDbArc
50
45.0000000002
51
90
0
LINE
5
69
100
AcDbEntity
8
0
6
ByLayer
62
256
370
-1
100
AcDbLine
10
14.6066017178
20
-5.6066017178
11
13.1066017178
21
-5.6066017178
0
LINE
5
6A
100
AcDbEntity
8
0
6
ByLayer
62
256
370
-1
100
AcDbLine
10
12.1066017178
20
-3.6066017178
11
12.1066017178
21
-4.6066017178
0
ARC
5
6B
100
AcDbEntity
8
0
6
ByLayer
62
256
370
-1
100
AcDbCircle
10
13.1066017178
20
-4.6066017178
40
1
100
AcDbArc
50
180
51
270
0
LINE
5
6C
100
AcDbEntity
8
0
6
ByLayer
62
256
370
-1
100
AcDbLine
10
4.6066017178
20
-7.43502884254
11
3.17157287525
21
-6
0
ARC
5
6D
100
AcDbEntity
8
0
6
ByLayer
62
256
370
-1
100
AcDbCircle
10
2.19238815545
20
-9.8492424049
40
3.41421356235
100
AcDbArc
50
0
51
45.0000000002
0
LINE
5
6E
100
AcDbEntity
8
0
6
ByLayer
62
256
370
-1
100
AcDbLine
10
9.1066017178
20
-3.6066017178
11
9.1066017178
21
-5.23407049267
0
LINE
5
6F
100
AcDbEntity
8
0
6
ByLayer
62
256
370
-1
100
AcDbLine
10
8.1066017178
20
-5.6066017178
11
6
21
-3.17157287525
0
ARC
5
70
100
AcDbEntity
8
0
6
ByLayer
62
256
370
-1
100
AcDbCircle
10
8.53721196095
20
-5.23407049267
40
0.569389756847
100
AcDbArc
50
220.86386677
51
360
0
LINE
5
71
100
AcDbEntity
8
0
6
ByLayer
62
256
370
-1
100
AcDbLine
10
19.7132034356
20
-14.2132034356
11
22.7132034356
21
-14.2132034356
0
ARC
5
72
100
AcDbEntity
8
0
6
ByLayer
62
256
370
-1
100
AcDbCircle
10
29.627416998
20
-21.9705627485
40
3.41421356237
100
AcDbArc
50
180
51
225
0
ARC
5
73
100
AcDbEntity
8
0
6
ByLayer
62
256
370
-1
100
AcDbCircle
10
25.2132034356
20
-17.2132034356
40
1
100
AcDbArc
50
0
51
90
0
LINE
5
74
100
AcDbEntity
8
0
6
ByLayer
62
256
370
-1
100
AcDbLine
10
26.2132034356
20
-17.2132034356
11
26.2132034356
21
-21.9705627485
0
ARC
5
75
100
AcDbEntity
8
0
6
ByLayer
62
256
370
-1
100
AcDbCircle
10
21.9705627485
20
-29.627416998
40
3.41421356239
100
AcDbArc
50
45.0000000002
51
90
0
LINE
5
76
100
AcDbEntity
8
0
6
ByLayer
62
256
370
-1
100
AcDbLine
10
25.2132034356
20
-16.2132034356
11
23.7132034356
21
-16.2132034356
0
LINE
5
77
100
AcDbEntity
8
0
6
ByLayer
62
256
370
-1
100
AcDbLine
10
22.7132034356
20
-14.2132034356
11
22.7132034356
21
-15.2132034356
0
ARC
5
78
100
AcDbEntity
8
0
6
ByLayer
62
256
370
-1
100
AcDbCircle
10
23.7132034356
20
-15.2132034356
40
1
100
AcDbArc
50
180
51
270
0
ARC
5
79
100
AcDbEntity
8
0
6
ByLayer
62
256
370
-1
100
AcDbCircle
10
12.7989898732
20
-20.4558441227
40
3.41421356235
100
AcDbArc
50
0
51
45.0000000002
0
LINE
5
7A
100
AcDbEntity
8
0
6
ByLayer
62
256
370
-1
100
AcDbLine
10
19.7132034356
20
-14.2132034356
11
19.7132034356
21
-15.8406722105
0
ARC
5
7B
100
AcDbEntity
8
0
6
ByLayer
62
256
370
-1
100
AcDbCircle
10
19.1438136787
20
-15.8406722105
40
0.569389756847
100
AcDbArc
50
220.86386677
51
360
0
CIRCLE
5
7C
100
AcDbEntity
8
0
6
ByLayer
62
256
370
-1
100
AcDbCircle
10
21.2132034356
20
-21.2132034356
40
2
0
LINE
5
7D
100
AcDbEntity
8
0
6
ByLayer
62
256
370
-1
100
AcDbLine
10
30.3198051534
20
-24.8198051534
11
33.3198051534
21
-24.8198051534
0
ARC
5
7E
100
AcDbEntity
8
0
6
ByLayer
62
256
370
-1
100
AcDbCircle
10
40.2340187158
20
-32.5771644663
40
3.41421356237
100
AcDbArc
50
180
51
225
0
ARC
5
7F
100
AcDbEntity
8
0
6
ByLayer
62
256
370
-1
100
AcDbCircle
10
35.8198051534
20
-27.8198051534
40
1
100
AcDbArc
50
0
51
90
0
LINE
5
80
100
AcDbEntity
8
0
6
ByLayer
62
256
370
-1
100
AcDbLine
10
36.8198051534
20
-27.8198051534
11
36.8198051534
21
-32.5771644663
0
LINE
5
81
100
AcDbEntity
8
0
6
ByLayer
62
256
370
-1
100
AcDbLine
10
35.8198051534
20
-26.8198051534
11
34.3198051534
21
-26.8198051534
0
LINE
5
82
100
AcDbEntity
8
0
6
ByLayer
62
256
370
-1
100
AcDbLine
10
33.3198051534
20
-24.8198051534
11
33.3198051534
21
-25.8198051534
0
ARC
5
83
100
AcDbEntity
8
0
6
ByLayer
62
256
370
-1
100
AcDbCircle
10
34.3198051534
20
-25.8198051534
40
1
100
AcDbArc
50
180
51
270
0
ARC
5
84
100
AcDbEntity
8
0
6
ByLayer
62
256
370
-1
100
AcDbCircle
10
23.405591591
20
-31.0624458405
40
3.41421356235
100
AcDbArc
50
0
51
45.0000000002
0
LINE
5
85
100
AcDbEntity
8
0
6
ByLayer
62
256
370
-1
100
AcDbLine
10
30.3198051534
20
-24.8198051534
11
30.3198051534
21
-26.4472739283
0
ARC
5
86
100
AcDbEntity
8
0
6
ByLayer
62
256
370
-1
100
AcDbCircle
10
29.7504153965
20
-26.4472739283
40
0.569389756847
100
AcDbArc
50
220.86386677
51
360
0
CIRCLE
5
87
100
AcDbEntity
8
0
6
ByLayer
62
256
370
-1
100
AcDbCircle
10
31.8198051534
20
-31.8198051534
40
2
0
LINE
5
88
100
AcDbEntity
8
0
6
ByLayer
62
256
370
-1
100
AcDbLine
10
40.9264068712
20
-35.4264068712
11
43.9264068712
21
-35.4264068712
0
ARC
5
89
100
AcDbEntity
8
0
6
ByLayer
62
256
370
-1
100
AcDbCircle
10
50.8406204336
20
-43.1837661841
40
3.41421356237
100
AcDbArc
50
180
51
225
0
ARC
5
8A
100
AcDbEntity
8
0
6
ByLayer
62
256
370
-1
100
AcDbCircle
10
46.4264068712
20
-38.4264068712
40
1
100
AcDbArc
50
0
51
90
0
LINE
5
8B
100
AcDbEntity
8
0
6
ByLayer
62
256
370
-1
100
AcDbLine
10
47.4264068712
20
-38.4264068712
11
47.4264068712
21
-43.1837661841
0
LINE
5
8C
100
AcDbEntity
8
0
6
ByLayer
62
256
370
-1
100
AcDbLine
10
46.4264068712
20
-37.4264068712
11
44.9264068712
21
-37.4264068712
0
LINE
5
8D
100
AcDbEntity
8
0
6
ByLayer
62
256
370
-1
100
AcDbLine
10
43.9264068712
20
-35.4264068712
11
43.9264068712
21
-36.4264068712
0
ARC
5
8E
100
AcDbEntity
8
0
6
ByLayer
62
256
370
-1
100
AcDbCircle
10
44.9264068712
20
-36.4264068712
40
1
100
AcDbArc
50
180
51
270
0
LINE
5
8F
100
AcDbEntity
8
0
6
ByLayer
62
256
370
-1
100
AcDbLine
10
40.9264068712
20
-35.4264068712
11
40.9264068712
21
-37.0538756461
0
ARC
5
90
100
AcDbEntity
8
0
6
ByLayer
62
256
370
-1
100
AcDbCircle
10
40.3570171143
20
-37.0538756461
40
0.569389756847
100
AcDbArc
50
220.86386677
51
360
0
CIRCLE
5
91
100
AcDbEntity
8
0
6
ByLayer
62
256
370
-1
100
AcDbCircle
10
42.4264068712
20
-42.4264068712
40
2
0
LINE
5
92
100
AcDbEntity
8
0
6
ByLayer
62
256
370
-1
100
AcDbLine
10
51.533008589
20
-46.033008589
11
54.533008589
21
-46.033008589
0
ARC
5
93
100
AcDbEntity
8
0
6
ByLayer
62
256
370
-1
100
AcDbCircle
10
61.4472221514
20
-53.7903679019
40
3.41421356237
100
AcDbArc
50
180
51
225
0
ARC
5
94
100
AcDbEntity
8
0
6
ByLayer
62
256
370
-1
100
AcDbCircle
10
57.033008589
20
-49.033008589
40
1
100
AcDbArc
50
0
51
90
0
LINE
5
95
100
AcDbEntity
8
0
6
ByLayer
62
256
370
-1
100
AcDbLine
10
58.033008589
20
-49.033008589
11
58.033008589
21
-53.7903679019
0
LINE
5
96
100
AcDbEntity
8
0
6
ByLayer
62
256
370
-1
100
AcDbLine
10
57.033008589
20
-48.033008589
11
55.533008589
21
-48.033008589
0
LINE
5
97
100
AcDbEntity
8
0
6
ByLayer
62
256
370
-1
100
AcDbLine
10
54.533008589
20
-46.033008589
11
54.533008589
21
-47.033008589
0
ARC
5
98
100
AcDbEntity
8
0
6
ByLayer
62
256
370
-1
100
AcDbCircle
10
55.533008589
20
-47.033008589
40
1
100
AcDbArc
50
180
51
270
0
LINE
5
99
100
AcDbEntity
8
0
6
ByLayer
62
256
370
-1
100
AcDbLine
10
51.533008589
20
-46.033008589
11
51.533008589
21
-47.6604773639
0
ARC
5
9A
100
AcDbEntity
8
0
6
ByLayer
62
256
370
-1
100
AcDbCircle
10
50.9636188321
20
-47.6604773639
40
0.569389756847
100
AcDbArc
50
220.86386677
51
360
0
CIRCLE
5
9B
100
AcDbEntity
8
0
6
ByLayer
62
256
370
-1
100
AcDbCircle
10
53.033008589
20
-53.033008589
40
2
0
LINE
5
9C
100
AcDbEntity
8
0
6
ByLayer
62
256
370
-1
100
AcDbLine
10
62.1396103068
20
-56.6396103068
11
65.1396103068
21
-56.6396103068
0
ARC
5
9D
100
AcDbEntity
8
0
6
ByLayer
62
256
370
-1
100
AcDbCircle
10
72.0538238692
20
-64.3969696197
40
3.41421356237
100
AcDbArc
50
180
51
225
0
ARC
5
9E
100
AcDbEntity
8
0
6
ByLayer
62
256
370
-1
100
AcDbCircle
10
67.6396103068
20
-59.6396103068
40
1
100
AcDbArc
50
0
51
90
0
LINE
5
9F
100
AcDbEntity
8
0
6
ByLayer
62
256
370
-1
100
AcDbLine
10
68.6396103068
20
-59.6396103068
11
68.6396103068
21
-64.3969696197
0
ARC
5
A0
100
AcDbEntity
8
0
6
ByLayer
62
256
370
-1
100
AcDbCircle
10
64.3969696197
20
-72.0538238692
40
3.41421356239
100
AcDbArc
50
45.0000000002
51
90
0
LINE
5
A1
100
AcDbEntity
8
0
6
ByLayer
62
256
370
-1
100
AcDbLine
10
67.6396103068
20
-58.6396103068
11
66.1396103068
21
-58.6396103068
0
LINE
5
A2
100
AcDbEntity
8
0
6
ByLayer
62
256
370
-1
100
AcDbLine
10
65.1396103068
20
-56.6396103068
11
65.1396103068
21
-57.6396103068
0
ARC
5
A3
100
AcDbEntity
8
0
6
ByLayer
62
256
370
-1
100
AcDbCircle
10
66.1396103068
20
-57.6396103068
40
1
100
AcDbArc
50
180
51
270
0
LINE
5
A4
100
AcDbEntity
8
0
6
ByLayer
62
256
370
-1
100
AcDbLine
10
62.1396103068
20
-56.6396103068
11
62.1396103068
21
-58.2670790817
0
ARC
5
A5
100
AcDbEntity
8
0
6
ByLayer
62
256
370
-1
100
AcDbCircle
10
61.5702205499
20
-58.2670790817
40
0.569389756847
100
AcDbArc
50
220.86386677
51
360
0
CIRCLE
5
A6
100
AcDbEntity
8
0
6
ByLayer
62
256
370
-1
100
AcDbCircle
10
63.6396103068
20
-63.6396103068
40
2
0
LINE
5
A7
100
AcDbEntity
8
0
6
ByLayer
62
256
370
-1
100
AcDbLine
10
72.7462120246
20
-67.2462120246
11
75.7462120246
21
-67.2462120246
0
ARC
5
A8
100
AcDbEntity
8
0
6
ByLayer
62
256
370
-1
100
AcDbCircle
10
82.660425587
20
-75.0035713375
40
3.41421356237
100
AcDbArc
50
180
51
225
0
ARC
5
A9
100
AcDbEntity
8
0
6
ByLayer
62
256
370
-1
100
AcDbCircle
10
78.2462120246
20
-70.2462120246
40
1
100
AcDbArc
50
0
51
90
0
LINE
5
AA
100
AcDbEntity
8
0
6
ByLayer
62
256
370
-1
100
AcDbLine
10
79.2462120246
20
-70.2462120246
11
79.2462120246
21
-75.0035713375
0
ARC
5
AB
100
AcDbEntity
8
0
6
ByLayer
62
256
370
-1
100
AcDbCircle
10
75.0035713375
20
-82.660425587
40
3.41421356239
100
AcDbArc
50
45.0000000002
51
90
0
LINE
5
AC
100
AcDbEntity
8
0
6
ByLayer
62
256
370
-1
100
AcDbLine
10
78.2462120246
20
-69.2462120246
11
76.7462120246
21
-69.2462120246
0
LINE
5
AD
100
AcDbEntity
8
0
6
ByLayer
62
256
370
-1
100
AcDbLine
10
75.7462120246
20
-67.2462120246
11
75.7462120246
21
-68.2462120246
0
ARC
5
AE
100
AcDbEntity
8
0
6
ByLayer
62
256
370
-1
100
AcDbCircle
10
76.7462120246
20
-68.2462120246
40
1
100
AcDbArc
50
180
51
270
0
LINE
5
AF
100
AcDbEntity
8
0
6
ByLayer
62
256
370
-1
100
AcDbLine
10
69.2462120246
20
-73.4888527117
11
69.2462120246
21
-78.2462120246
0
ARC
5
B0
100
AcDbEntity
8
0
6
ByLayer
62
256
370
-1
100
AcDbCircle
10
65.8319984622
20
-73.4888527117
40
3.41421356235
100
AcDbArc
50
0
51
45.0000000002
0
LINE
5
B1
100
AcDbEntity
8
0
6
ByLayer
62
256
370
-1
100
AcDbLine
10
72.7462120246
20
-67.2462120246
11
72.7462120246
21
-68.8736807995
0
ARC
5
B2
100
AcDbEntity
8
0
6
ByLayer
62
256
370
-1
100
AcDbCircle
10
72.1768222677
20
-68.8736807995
40
0.569389756847
100
AcDbArc
50
220.86386677
51
360
0
CIRCLE
5
B3
100
AcDbEntity
8
0
6
ByLayer
62
256
370
-1
100
AcDbCircle
10
74.2462120246
20
-74.2462120246
40
2
0
LINE
5
B4
100
AcDbEntity
8
0
6
ByLayer
62
256
370
-1
100
AcDbLine
10
16.6066017178
20
-13.7781745931
11
18.7132034356
21
-16.2132034356
0
LINE
5
B5
100
AcDbEntity
8
0
6
ByLayer
62
256
370
-1
100
AcDbLine
10
13.778174593
20
-16.6066017178
11
15.2132034356
21
-18.0416305603
0
LINE
5
B6
100
AcDbEntity
8
0
6
ByLayer
62
256
370
-1
100
AcDbLine
10
27.2132034356
20
-24.3847763108
11
29.3198051534
21
-26.8198051534
0
LINE
5
B7
100
AcDbEntity
8
0
6
ByLayer
62
256
370
-1
100
AcDbLine
10
24.3847763108
20
-27.2132034356
11
25.8198051534
21
-28.6482322781
0
LINE
5
B8
100
AcDbEntity
8
0
6
ByLayer
62
256
370
-1
100
AcDbLine
10
66.811183182
20
-69.6396103068
11
68.2462120246
21
-71.0746391493
0
LINE
5
B9
100
AcDbEntity
8
0
6
ByLayer
62
256
370
-1
100
AcDbLine
10
80.2462120246
20
-77.4177848998
11
77.4177848998
21
-80.2462120246
0
LINE
5
BA
100
AcDbEntity
8
0
6
ByLayer
62
256
370
-1
100
AcDbLine
10
-1.5
20
-14.2132034356
11
1.5
21
-14.2132034356
0
CIRCLE
5
BB
100
AcDbEntity
8
0
6
ByLayer
62
256
370
-1
100
AcDbCircle
10
-1.59872115546e-14
20
-21.2132034356
40
2
0
ARC
5
BC
100
AcDbEntity
8
0
6
ByLayer
62
256
370
-1
100
AcDbCircle
10
8.41421356237
20
-21.9705627485
40
3.41421356237
100
AcDbArc
50
180
51
225
0
ARC
5
BD
100
AcDbEntity
8
0
6
ByLayer
62
256
370
-1
100
AcDbCircle
10
0.757359312871
20
-29.627416998
40
3.41421356239
100
AcDbArc
50
45.0000000002
51
90
0
LINE
5
BE
100
AcDbEntity
8
0
6
ByLayer
62
256
370
-1
100
AcDbLine
10
1.5
20
-14.2132034356
11
1.5
21
-15.2132034356
0
ARC
5
BF
100
AcDbEntity
8
0
6
ByLayer
62
256
370
-1
100
AcDbCircle
10
2.5
20
-15.2132034356
40
1
100
AcDbArc
50
180
51
270
0
LINE
5
C0
100
AcDbEntity
8
0
6
ByLayer
62
256
370
-1
100
AcDbLine
10
9.1066017178
20
-24.8198051534
11
12.1066017178
21
-24.8198051534
0
ARC
5
C1
100
AcDbEntity
8
0
6
ByLayer
62
256
370
-1
100
AcDbCircle
10
19.0208152802
20
-32.5771644663
40
3.41421356237
100
AcDbArc
50
180
51
225
0
ARC
5
C2
100
AcDbEntity
8
0
6
ByLayer
62
256
370
-1
100
AcDbCircle
10
11.3639610307
20
-40.2340187158
40
3.41421356239
100
AcDbArc
50
45.0000000002
51
90
0
LINE
5
C3
100
AcDbEntity
8
0
6
ByLayer
62
256
370
-1
100
AcDbLine
10
12.1066017178
20
-24.8198051534
11
12.1066017178
21
-25.8198051534
0
ARC
5
C4
100
AcDbEntity
8
0
6
ByLayer
62
256
370
-1
100
AcDbCircle
10
13.1066017178
20
-25.8198051534
40
1
100
AcDbArc
50
180
51
270
0
ARC
5
C5
100
AcDbEntity
8
0
6
ByLayer
62
256
370
-1
100
AcDbCircle
10
2.19238815545
20
-31.0624458405
40
3.41421356235
100
AcDbArc
50
0
51
45.0000000002
0
LINE
5
C6
100
AcDbEntity
8
0
6
ByLayer
62
256
370
-1
100
AcDbLine
10
9.1066017178
20
-24.8198051534
11
9.1066017178
21
-26.4472739283
0
ARC
5
C7
100
AcDbEntity
8
0
6
ByLayer
62
256
370
-1
100
AcDbCircle
10
8.53721196095
20
-26.4472739283
40
0.569389756847
100
AcDbArc
50
220.86386677
51
360
0
CIRCLE
5
C8
100
AcDbEntity
8
0
6
ByLayer
62
256
370
-1
100
AcDbCircle
10
10.6066017178
20
-31.8198051534
40
2
0
LINE
5
C9
100
AcDbEntity
8
0
6
ByLayer
62
256
370
-1
100
AcDbLine
10
19.7132034356
20
-35.4264068712
11
22.7132034356
21
-35.4264068712
0
ARC
5
CA
100
AcDbEntity
8
0
6
ByLayer
62
256
370
-1
100
AcDbCircle
10
21.9705627485
20
-50.8406204336
40
3.41421356239
100
AcDbArc
50
45.0000000002
51
90
0
LINE
5
CB
100
AcDbEntity
8
0
6
ByLayer
62
256
370
-1
100
AcDbLine
10
22.7132034356
20
-35.4264068712
11
22.7132034356
21
-36.4264068712
0
ARC
5
CC
100
AcDbEntity
8
0
6
ByLayer
62
256
370
-1
100
AcDbCircle
10
23.7132034356
20
-36.4264068712
40
1
100
AcDbArc
50
180
51
270
0
ARC
5
CD
100
AcDbEntity
8
0
6
ByLayer
62
256
370
-1
100
AcDbCircle
10
12.7989898732
20
-41.6690475583
40
3.41421356235
100
AcDbArc
50
0
51
45.0000000002
0
LINE
5
CE
100
AcDbEntity
8
0
6
ByLayer
62
256
370
-1
100
AcDbLine
10
19.7132034356
20
-35.4264068712
11
19.7132034356
21
-37.0538756461
0
ARC
5
CF
100
AcDbEntity
8
0
6
ByLayer
62
256
370
-1
100
AcDbCircle
10
19.1438136787
20
-37.0538756461
40
0.569389756847
100
AcDbArc
50
220.86386677
51
360
0
CIRCLE
5
D0
100
AcDbEntity
8
0
6
ByLayer
62
256
370
-1
100
AcDbCircle
10
21.2132034356
20
-42.4264068712
40
2
0
ARC
5
D1
100
AcDbEntity
8
0
6
ByLayer
62
256
370
-1
100
AcDbCircle
10
32.5771644663
20
-61.4472221514
40
3.41421356239
100
AcDbArc
50
45.0000000002
51
90
0
ARC
5
D2
100
AcDbEntity
8
0
6
ByLayer
62
256
370
-1
100
AcDbCircle
10
23.405591591
20
-52.2756492761
40
3.41421356235
100
AcDbArc
50
0
51
45.0000000002
0
CIRCLE
5
D3
100
AcDbEntity
8
0
6
ByLayer
62
256
370
-1
100
AcDbCircle
10
31.8198051534
20
-53.033008589
40
2
0
ARC
5
D4
100
AcDbEntity
8
0
6
ByLayer
62
256
370
-1
100
AcDbCircle
10
43.1837661841
20
-72.0538238692
40
3.41421356239
100
AcDbArc
50
45.0000000002
51
90
0
ARC
5
D5
100
AcDbEntity
8
0
6
ByLayer
62
256
370
-1
100
AcDbCircle
10
34.0121933088
20
-62.8822509939
40
3.41421356235
100
AcDbArc
50
0
51
45.0000000002
0
CIRCLE
5
D6
100
AcDbEntity
8
0
6
ByLayer
62
256
370
-1
100
AcDbCircle
10
42.4264068712
20
-63.6396103068
40
2
0
ARC
5
D7
100
AcDbEntity
8
0
6
ByLayer
62
256
370
-1
100
AcDbCircle
10
44.6187950266
20
-73.4888527117
40
3.41421356235
100
AcDbArc
50
0
51
45.0000000002
0
CIRCLE
5
D8
100
AcDbEntity
8
0
6
ByLayer
62
256
370
-1
100
AcDbCircle
10
53.033008589
20
-74.2462120246
40
2
0
LINE
5
D9
100
AcDbEntity
8
0
6
ByLayer
62
256
370
-1
100
AcDbLine
10
6
20
-24.3847763108
11
8.1066017178
21
-26.8198051534
0
LINE
5
DA
100
AcDbEntity
8
0
6
ByLayer
62
256
370
-1
100
AcDbLine
10
3.17157287525
20
-27.2132034356
11
4.6066017178
21
-28.6482322781
0
LINE
5
DB
100
AcDbEntity
8
0
6
ByLayer
62
256
370
-1
100
AcDbLine
10
16.6066017178
20
-34.9913780286
11
18.7132034356
21
-37.4264068712
0
LINE
5
DC
100
AcDbEntity
8
0
6
ByLayer
62
256
370
-1
100
AcDbLine
10
13.778174593
20
-37.8198051534
11
15.2132034356
21
-39.2548339959
0
LINE
5
DD
100
AcDbEntity
8
0
6
ByLayer
62
256
370
-1
100
AcDbLine
10
24.3847763108
20
-48.4264068712
11
25.8198051534
21
-49.8614357137
0
LINE
5
DE
100
AcDbEntity
8
0
6
ByLayer
62
256
370
-1
100
AcDbLine
10
34.9913780286
20
-59.033008589
11
36.4264068712
21
-60.4680374315
0
LINE
5
DF
100
AcDbEntity
8
0
6
ByLayer
62
256
370
-1
100
AcDbLine
10
45.5979797464
20
-69.6396103068
11
47.033008589
21
-71.0746391493
0
LINE
5
E0
100
AcDbEntity
8
0
6
ByLayer
62
256
370
-1
100
AcDbLine
10
16.2132034356
20
-20.4558441227
11
16.2132034356
21
-24.8198051534
0
LINE
5
E1
100
AcDbEntity
8
0
6
ByLayer
62
256
370
-1
100
AcDbLine
10
14.2132034356
20
-26.8198051534
11
13.1066017178
21
-26.8198051534
0
ARC
5
E2
100
AcDbEntity
8
0
6
ByLayer
62
256
370
-1
100
AcDbCircle
10
14.2132034356
20
-24.8198051534
40
2
100
AcDbArc
50
270
51
0
0
LINE
5
E3
100
AcDbEntity
8
0
6
ByLayer
62
256
370
-1
100
AcDbLine
10
17.6066017178
20
-26.2132034356
11
21.9705627485
21
-26.2132034356
0
LINE
5
E4
100
AcDbEntity
8
0
6
ByLayer
62
256
370
-1
100
AcDbLine
10
15.6066017178
20
-28.2132034356
11
15.6066017178
21
-32.5771644663
0
ARC
5
E5
100
AcDbEntity
8
0
6
ByLayer
62
256
370
-1
100
AcDbCircle
10
17.6066017178
20
-28.2132034356
40
2
100
AcDbArc
50
90
51
180
0
LINE
5
E6
100
AcDbEntity
8
0
6
ByLayer
62
256
370
-1
100
AcDbLine
10
26.8198051534
20
-31.0624458405
11
26.8198051534
21
-35.4264068712
0
LINE
5
E7
100
AcDbEntity
8
0
6
ByLayer
62
256
370
-1
100
AcDbLine
10
24.8198051534
20
-37.4264068712
11
23.7132034356
21
-37.4264068712
0
ARC
5
E8
100
AcDbEntity
8
0
6
ByLayer
62
256
370
-1
100
AcDbCircle
10
24.8198051534
20
-35.4264068712
40
2
100
AcDbArc
50
270
51
0
0
ARC
5
E9
100
AcDbEntity
8
0
6
ByLayer
62
256
370
-1
100
AcDbCircle
10
32.5771644663
20
-40.2340187158
40
3.41421356239
100
AcDbArc
50
45.0000000002
51
90
0
ARC
5
EA
100
AcDbEntity
8
0
6
ByLayer
62
256
370
-1
100
AcDbCircle
10
34.0121933088
20
-41.6690475583
40
3.41421356235
100
AcDbArc
50
0
51
45.0000000002
0
LINE
5
EB
100
AcDbEntity
8
0
6
ByLayer
62
256
370
-1
100
AcDbLine
10
34.9913780286
20
-37.8198051534
11
36.4264068712
21
-39.2548339959
0
ARC
5
EC
100
AcDbEntity
8
0
6
ByLayer
62
256
370
-1
100
AcDbCircle
10
29.627416998
20
-43.1837661841
40
3.41421356237
100
AcDbArc
50
180
51
225
0
LINE
5
ED
100
AcDbEntity
8
0
6
ByLayer
62
256
370
-1
100
AcDbLine
10
30.3198051534
20
-46.033008589
11
33.3198051534
21
-46.033008589
0
LINE
5
EE
100
AcDbEntity
8
0
6
ByLayer
62
256
370
-1
100
AcDbLine
10
33.3198051534
20
-46.033008589
11
33.3198051534
21
-47.033008589
0
ARC
5
EF
100
AcDbEntity
8
0
6
ByLayer
62
256
370
-1
100
AcDbCircle
10
34.3198051534
20
-47.033008589
40
1
100
AcDbArc
50
180
51
270
0
LINE
5
F0
100
AcDbEntity
8
0
6
ByLayer
62
256
370
-1
100
AcDbLine
10
30.3198051534
20
-46.033008589
11
30.3198051534
21
-47.6604773639
0
ARC
5
F1
100
AcDbEntity
8
0
6
ByLayer
62
256
370
-1
100
AcDbCircle
10
29.7504153965
20
-47.6604773639
40
0.569389756847
100
AcDbArc
50
220.86386677
51
360
0
LINE
5
F2
100
AcDbEntity
8
0
6
ByLayer
62
256
370
-1
100
AcDbLine
10
27.2132034356
20
-45.5979797464
11
29.3198051534
21
-48.033008589
0
LINE
5
F3
100
AcDbEntity
8
0
6
ByLayer
62
256
370
-1
100
AcDbLine
10
28.2132034356
20
-36.8198051534
11
32.5771644663
21
-36.8198051534
0
LINE
5
F4
100
AcDbEntity
8
0
6
ByLayer
62
256
370
-1
100
AcDbLine
10
26.2132034356
20
-38.8198051534
11
26.2132034356
21
-43.1837661841
0
ARC
5
F5
100
AcDbEntity
8
0
6
ByLayer
62
256
370
-1
100
AcDbCircle
10
28.2132034356
20
-38.8198051534
40
2
100
AcDbArc
50
90
51
180
0
LINE
5
F6
100
AcDbEntity
8
0
6
ByLayer
62
256
370
-1
100
AcDbLine
10
37.4264068712
20
-41.6690475583
11
37.4264068712
21
-46.033008589
0
LINE
5
F7
100
AcDbEntity
8
0
6
ByLayer
62
256
370
-1
100
AcDbLine
10
35.4264068712
20
-48.033008589
11
34.3198051534
21
-48.033008589
0
ARC
5
F8
100
AcDbEntity
8
0
6
ByLayer
62
256
370
-1
100
AcDbCircle
10
35.4264068712
20
-46.033008589
40
2
100
AcDbArc
50
270
51
0
0
ARC
5
F9
100
AcDbEntity
8
0
6
ByLayer
62
256
370
-1
100
AcDbCircle
10
43.1837661841
20
-50.8406204336
40
3.41421356239
100
AcDbArc
50
45.0000000002
51
90
0
ARC
5
FA
100
AcDbEntity
8
0
6
ByLayer
62
256
370
-1
100
AcDbCircle
10
44.6187950266
20
-52.2756492761
40
3.41421356235
100
AcDbArc
50
0
51
45.0000000002
0
LINE
5
FB
100
AcDbEntity
8
0
6
ByLayer
62
256
370
-1
100
AcDbLine
10
45.5979797464
20
-48.4264068712
11
47.033008589
21
-49.8614357137
0
ARC
5
FC
100
AcDbEntity
8
0
6
ByLayer
62
256
370
-1
100
AcDbCircle
10
40.2340187158
20
-53.7903679019
40
3.41421356237
100
AcDbArc
50
180
51
225
0
LINE
5
FD
100
AcDbEntity
8
0
6
ByLayer
62
256
370
-1
100
AcDbLine
10
40.9264068712
20
-56.6396103068
11
43.9264068712
21
-56.6396103068
0
LINE
5
FE
100
AcDbEntity
8
0
6
ByLayer
62
256
370
-1
100
AcDbLine
10
43.9264068712
20
-56.6396103068
11
43.9264068712
21
-57.6396103068
0
ARC
5
FF
100
AcDbEntity
8
0
6
ByLayer
62
256
370
-1
100
AcDbCircle
10
44.9264068712
20
-57.6396103068
40
1
100
AcDbArc
50
180
51
270
0
LINE
5
100
100
AcDbEntity
8
0
6
ByLayer
62
256
370
-1
100
AcDbLine
10
40.9264068712
20
-56.6396103068
11
40.9264068712
21
-58.2670790817
0
ARC
5
101
100
AcDbEntity
8
0
6
ByLayer
62
256
370
-1
100
AcDbCircle
10
40.3570171143
20
-58.2670790817
40
0.569389756847
100
AcDbArc
50
220.86386677
51
360
0
LINE
5
102
100
AcDbEntity
8
0
6
ByLayer
62
256
370
-1
100
AcDbLine
10
37.8198051534
20
-56.2045814642
11
39.9264068712
21
-58.6396103068
0
LINE
5
103
100
AcDbEntity
8
0
6
ByLayer
62
256
370
-1
100
AcDbLine
10
38.8198051534
20
-47.4264068712
11
43.1837661841
21
-47.4264068712
0
LINE
5
104
100
AcDbEntity
8
0
6
ByLayer
62
256
370
-1
100
AcDbLine
10
36.8198051534
20
-49.4264068712
11
36.8198051534
21
-53.7903679019
0
ARC
5
105
100
AcDbEntity
8
0
6
ByLayer
62
256
370
-1
100
AcDbCircle
10
38.8198051534
20
-49.4264068712
40
2
100
AcDbArc
50
90
51
180
0
LINE
5
106
100
AcDbEntity
8
0
6
ByLayer
62
256
370
-1
100
AcDbLine
10
48.033008589
20
-52.2756492761
11
48.033008589
21
-56.6396103068
0
ARC
5
107
100
AcDbEntity
8
0
6
ByLayer
62
256
370
-1
100
AcDbCircle
10
46.033008589
20
-56.6396103068
40
2
100
AcDbArc
50
270
51
0
0
ARC
5
108
100
AcDbEntity
8
0
6
ByLayer
62
256
370
-1
100
AcDbCircle
10
53.7903679019
20
-61.4472221514
40
3.41421356239
100
AcDbArc
50
45.0000000002
51
90
0
ARC
5
109
100
AcDbEntity
8
0
6
ByLayer
62
256
370
-1
100
AcDbCircle
10
55.2253967444
20
-62.8822509939
40
3.41421356235
100
AcDbArc
50
0
51
45.0000000002
0
LINE
5
10A
100
AcDbEntity
8
0
6
ByLayer
62
256
370
-1
100
AcDbLine
10
56.2045814642
20
-59.033008589
11
57.6396103068
21
-60.4680374315
0
ARC
5
10B
100
AcDbEntity
8
0
6
ByLayer
62
256
370
-1
100
AcDbCircle
10
50.8406204336
20
-64.3969696197
40
3.41421356237
100
AcDbArc
50
180
51
225
0
LINE
5
10C
100
AcDbEntity
8
0
6
ByLayer
62
256
370
-1
100
AcDbLine
10
51.533008589
20
-67.2462120246
11
54.533008589
21
-67.2462120246
0
LINE
5
10D
100
AcDbEntity
8
0
6
ByLayer
62
256
370
-1
100
AcDbLine
10
54.533008589
20
-67.2462120246
11
54.533008589
21
-68.2462120246
0
ARC
5
10E
100
AcDbEntity
8
0
6
ByLayer
62
256
370
-1
100
AcDbCircle
10
55.533008589
20
-68.2462120246
40
1
100
AcDbArc
50
180
51
270
0
LINE
5
10F
100
AcDbEntity
8
0
6
ByLayer
62
256
370
-1
100
AcDbLine
10
51.533008589
20
-67.2462120246
11
51.533008589
21
-68.8736807995
0
ARC
5
110
100
AcDbEntity
8
0
6
ByLayer
62
256
370
-1
100
AcDbCircle
10
50.9636188321
20
-68.8736807995
40
0.569389756847
100
AcDbArc
50
220.86386677
51
360
0
LINE
5
111
100
AcDbEntity
8
0
6
ByLayer
62
256
370
-1
100
AcDbLine
10
48.4264068712
20
-66.811183182
11
50.533008589
21
-69.2462120246
0
LINE
5
112
100
AcDbEntity
8
0
6
ByLayer
62
256
370
-1
100
AcDbLine
10
49.4264068712
20
-58.033008589
11
53.7903679019
21
-58.033008589
0
LINE
5
113
100
AcDbEntity
8
0
6
ByLayer
62
256
370
-1
100
AcDbLine
10
47.4264068712
20
-60.033008589
11
47.4264068712
21
-64.3969696197
0
ARC
5
114
100
AcDbEntity
8
0
6
ByLayer
62
256
370
-1
100
AcDbCircle
10
49.4264068712
20
-60.033008589
40
2
100
AcDbArc
50
90
51
180
0
LINE
5
115
100
AcDbEntity
8
0
6
ByLayer
62
256
370
-1
100
AcDbLine
10
58.6396103068
20
-62.8822509939
11
58.6396103068
21
-67.2462120246
0
LINE
5
116
100
AcDbEntity
8
0
6
ByLayer
62
256
370
-1
100
AcDbLine
10
56.6396103068
20
-69.2462120246
11
55.533008589
21
-69.2462120246
0
ARC
5
117
100
AcDbEntity
8
0
6
ByLayer
62
256
370
-1
100
AcDbCircle
10
56.6396103068
20
-67.2462120246
40
2
100
AcDbArc
50
270
51
0
0
LINE
5
118
100
AcDbEntity
8
0
6
ByLayer
62
256
370
-1
100
AcDbLine
10
44.9264068712
20
-58.6396103068
11
46.033008589
21
-58.6396103068
0
LINE
5
119
100
AcDbEntity
8
0
6
ByLayer
62
256
370
-1
100
AcDbLine
10
60.033008589
20
-68.6396103068
11
64.3969696197
21
-68.6396103068
0
ARC
5
11A
100
AcDbEntity
8
0
6
ByLayer
62
256
370
-1
100
AcDbCircle
10
60.033008589
20
-70.6396103068
40
2
100
AcDbArc
50
90
51
180
0
LINE
5
11B
100
AcDbEntity
8
0
6
ByLayer
62
256
370
-1
100
AcDbLine
10
7
20
-15.6066017178
11
11.3639610307
21
-15.6066017178
0
LINE
5
11C
100
AcDbEntity
8
0
6
ByLayer
62
256
370
-1
100
AcDbLine
10
5
20
-17.6066017178
11
5
21
-21.9705627485
0
ARC
5
11D
100
AcDbEntity
8
0
6
ByLayer
62
256
370
-1
100
AcDbCircle
10
7
20
-17.6066017178
40
2
100
AcDbArc
50
90
51
180
0
LINE
5
11E
100
AcDbEntity
8
0
6
ByLayer
62
256
370
-1
100
AcDbLine
10
37.8198051534
20
-34.9913780286
11
39.9264068712
21
-37.4264068712
0
LINE
5
11F
100
AcDbEntity
8
0
6
ByLayer
62
256
370
-1
100
AcDbLine
10
48.4264068712
20
-45.5979797464
11
50.4642008357
21
-47.9339483129
0
LINE
5
120
100
AcDbEntity
8
0
6
ByLayer
62
256
370
-1
100
AcDbLine
10
59.033008589
20
-56.2045814642
11
61.1396103068
21
-58.6396103068
0
LINE
5
121
100
AcDbEntity
8
0
6
ByLayer
62
256
370
-1
100
AcDbLine
10
69.6396103068
20
-66.811183182
11
71.7462120246
21
-69.2462120246
0
LINE
5
122
100
AcDbEntity
8
0
6
ByLayer
62
256
370
-1
100
AcDbLine
10
5.6066017178
20
-9.8492424049
11
5.6066017178
21
-14.2132034356
0
LINE
5
123
100
AcDbEntity
8
0
6
ByLayer
62
256
370
-1
100
AcDbLine
10
3.6066017178
20
-16.2132034356
11
2.5
21
-16.2132034356
0
ARC
5
124
100
AcDbEntity
8
0
6
ByLayer
62
256
370
-1
100
AcDbCircle
10
3.6066017178
20
-14.2132034356
40
2
100
AcDbArc
50
270
51
0
0
LINE
5
125
100
AcDbEntity
8
0
6
ByLayer
62
256
370
-1
100
AcDbLine
10
5.6066017178
20
-31.0624458405
11
5.6066017178
21
-35.4264068712
0
ARC
5
126
100
AcDbEntity
8
0
6
ByLayer
62
256
370
-1
100
AcDbCircle
10
3.6066017178
20
-35.4264068712
40
2
100
AcDbArc
50
270
51
0
0
LINE
5
127
100
AcDbEntity
8
0
6
ByLayer
62
256
370
-1
100
AcDbLine
10
7
20
-36.8198051534
11
11.3639610307
21
-36.8198051534
0
ARC
5
128
100
AcDbEntity
8
0
6
ByLayer
62
256
370
-1
100
AcDbCircle
10
7
20
-38.8198051534
40
2
100
AcDbArc
50
90
51
180
0
LINE
5
129
100
AcDbEntity
8
0
6
ByLayer
62
256
370
-1
100
AcDbLine
10
16.2132034356
20
-41.6690475583
11
16.2132034356
21
-46.033008589
0
ARC
5
12A
100
AcDbEntity
8
0
6
ByLayer
62
256
370
-1
100
AcDbCircle
10
14.2132034356
20
-46.033008589
40
2
100
AcDbArc
50
270
51
0
0
LINE
5
12B
100
AcDbEntity
8
0
6
ByLayer
62
256
370
-1
100
AcDbLine
10
17.6066017178
20
-47.4264068712
11
21.9705627485
21
-47.4264068712
0
ARC
5
12C
100
AcDbEntity
8
0
6
ByLayer
62
256
370
-1
100
AcDbCircle
10
17.6066017178
20
-49.4264068712
40
2
100
AcDbArc
50
90
51
180
0
LINE
5
12D
100
AcDbEntity
8
0
6
ByLayer
62
256
370
-1
100
AcDbLine
10
26.8198051534
20
-52.2756492761
11
26.8198051534
21
-56.6396103068
0
ARC
5
12E
100
AcDbEntity
8
0
6
ByLayer
62
256
370
-1
100
AcDbCircle
10
24.8198051534
20
-56.6396103068
40
2
100
AcDbArc
50
270
51
0
0
LINE
5
12F
100
AcDbEntity
8
0
6
ByLayer
62
256
370
-1
100
AcDbLine
10
28.2132034356
20
-58.033008589
11
32.5771644663
21
-58.033008589
0
ARC
5
130
100
AcDbEntity
8
0
6
ByLayer
62
256
370
-1
100
AcDbCircle
10
28.2132034356
20
-60.033008589
40
2
100
AcDbArc
50
90
51
180
0
LINE
5
131
100
AcDbEntity
8
0
6
ByLayer
62
256
370
-1
100
AcDbLine
10
37.4264068712
20
-62.8822509939
11
37.4264068712
21
-67.2462120246
0
ARC
5
132
100
AcDbEntity
8
0
6
ByLayer
62
256
370
-1
100
AcDbCircle
10
35.4264068712
20
-67.2462120246
40
2
100
AcDbArc
50
270
51
0
0
LINE
5
133
100
AcDbEntity
8
0
6
ByLayer
62
256
370
-1
100
AcDbLine
10
38.8198051534
20
-68.6396103068
11
43.1837661841
21
-68.6396103068
0
ARC
5
134
100
AcDbEntity
8
0
6
ByLayer
62
256
370
-1
100
AcDbCircle
10
38.8198051534
20
-70.6396103068
40
2
100
AcDbArc
50
90
51
180
0
ARC
5
135
100
AcDbEntity
8
0
6
ByLayer
62
256
370
-1
100
AcDbCircle
10
72.0538238692
20
-85.6101730553
40
3.41421356237
100
AcDbArc
50
180
51
225
0
ARC
5
136
100
AcDbEntity
8
0
6
ByLayer
62
256
370
-1
100
AcDbCircle
10
64.3969696197
20
-93.2670273048
40
3.41421356239
100
AcDbArc
50
45.0000000002
51
90
0
LINE
5
137
100
AcDbEntity
8
0
6
ByLayer
62
256
370
-1
100
AcDbLine
10
69.6396103068
20
-88.0243866176
11
66.811183182
21
-90.8528137424
0
ARC
5
138
100
AcDbEntity
8
0
6
ByLayer
62
256
370
-1
100
AcDbCircle
10
53.7903679019
20
-82.660425587
40
3.41421356239
100
AcDbArc
50
45.0000000002
51
90
0
ARC
5
139
100
AcDbEntity
8
0
6
ByLayer
62
256
370
-1
100
AcDbCircle
10
55.2253967444
20
-84.0954544295
40
3.41421356235
100
AcDbArc
50
0
51
45.0000000002
0
LINE
5
13A
100
AcDbEntity
8
0
6
ByLayer
62
256
370
-1
100
AcDbLine
10
56.2045814642
20
-80.2462120246
11
57.6396103068
21
-81.6812408671
0
LINE
5
13B
100
AcDbEntity
8
0
6
ByLayer
62
256
370
-1
100
AcDbLine
10
48.033008589
20
-73.4888527117
11
48.033008589
21
-77.8528137424
0
ARC
5
13C
100
AcDbEntity
8
0
6
ByLayer
62
256
370
-1
100
AcDbCircle
10
46.033008589
20
-77.8528137424
40
2
100
AcDbArc
50
270
51
0
0
LINE
5
13D
100
AcDbEntity
8
0
6
ByLayer
62
256
370
-1
100
AcDbLine
10
49.4264068712
20
-79.2462120246
11
53.7903679019
21
-79.2462120246
0
ARC
5
13E
100
AcDbEntity
8
0
6
ByLayer
62
256
370
-1
100
AcDbCircle
10
49.4264068712
20
-81.2462120246
40
2
100
AcDbArc
50
90
51
180
0
ARC
5
13F
100
AcDbEntity
8
0
6
ByLayer
62
256
370
-1
100
AcDbCircle
10
61.4472221514
20
-75.0035713375
40
3.41421356237
100
AcDbArc
50
180
51
225
0
LINE
5
140
100
AcDbEntity
8
0
6
ByLayer
62
256
370
-1
100
AcDbLine
10
62.1396103068
20
-77.8528137424
11
65.1396103068
21
-77.8528137424
0
LINE
5
141
100
AcDbEntity
8
0
6
ByLayer
62
256
370
-1
100
AcDbLine
10
65.1396103068
20
-77.8528137424
11
65.1396103068
21
-78.8528137424
0
ARC
5
142
100
AcDbEntity
8
0
6
ByLayer
62
256
370
-1
100
AcDbCircle
10
66.1396103068
20
-78.8528137424
40
1
100
AcDbArc
50
180
51
270
0
LINE
5
143
100
AcDbEntity
8
0
6
ByLayer
62
256
370
-1
100
AcDbLine
10
62.1396103068
20
-77.8528137424
11
62.1396103068
21
-79.4802825173
0
ARC
5
144
100
AcDbEntity
8
0
6
ByLayer
62
256
370
-1
100
AcDbCircle
10
61.5702205499
20
-79.4802825173
40
0.569389756847
100
AcDbArc
50
220.86386677
51
360
0
LINE
5
145
100
AcDbEntity
8
0
6
ByLayer
62
256
370
-1
100
AcDbLine
10
59.033008589
20
-77.4177848998
11
61.1396103068
21
-79.8528137424
0
LINE
5
146
100
AcDbEntity
8
0
6
ByLayer
62
256
370
-1
100
AcDbLine
10
58.033008589
20
-70.6396103068
11
58.033008589
21
-75.0035713375
0
LINE
5
147
100
AcDbEntity
8
0
6
ByLayer
62
256
370
-1
100
AcDbLine
10
67.2462120246
20
-79.8528137424
11
66.1396103068
21
-79.8528137424
0
ARC
5
148
100
AcDbEntity
8
0
6
ByLayer
62
256
370
-1
100
AcDbCircle
10
67.2462120246
20
-77.8528137424
40
2
100
AcDbArc
50
270
51
0
0
LINE
5
149
100
AcDbEntity
8
0
6
ByLayer
62
256
370
-1
100
AcDbLine
10
70.6396103068
20
-79.2462120246
11
75.0035713375
21
-79.2462120246
0
LINE
5
14A
100
AcDbEntity
8
0
6
ByLayer
62
256
370
-1
100
AcDbLine
10
68.6396103068
20
-81.2462120246
11
68.6396103068
21
-85.6101730553
0
ARC
5
14B
100
AcDbEntity
8
0
6
ByLayer
62
256
370
-1
100
AcDbCircle
10
70.6396103068
20
-81.2462120246
40
2
100
AcDbArc
50
90
51
180
0
CIRCLE
5
14C
100
AcDbEntity
8
0
6
ByLayer
62
256
370
-1
100
AcDbCircle
10
63.6396103068
20
-84.8528137424
40
2
0
LINE
5
14D
100
AcDbEntity
8
0
6
ByLayer
62
256
370
-1
100
AcDbLine
10
-12.1066017178
20
-3.6066017178
11
-9.1066017178
21
-3.6066017178
0
CIRCLE
5
14E
100
AcDbEntity
8
0
6
ByLayer
62
256
370
-1
100
AcDbCircle
10
-10.6066017178
20
-10.6066017178
40
2
0
ARC
5
14F
100
AcDbEntity
8
0
6
ByLayer
62
256
370
-1
100
AcDbCircle
10
-9.84924240493
20
-19.0208152802
40
3.41421356239
100
AcDbArc
50
45.0000000002
51
90
0
LINE
5
150
100
AcDbEntity
8
0
6
ByLayer
62
256
370
-1
100
AcDbLine
10
-9.1066017178
20
-3.6066017178
11
-9.1066017178
21
-4.6066017178
0
ARC
5
151
100
AcDbEntity
8
0
6
ByLayer
62
256
370
-1
100
AcDbCircle
10
-8.1066017178
20
-4.6066017178
40
1
100
AcDbArc
50
180
51
270
0
ARC
5
152
100
AcDbEntity
8
0
6
ByLayer
62
256
370
-1
100
AcDbCircle
10
-14.6066017178
20
-6.6066017178
40
1
100
AcDbArc
50
90
51
180
0
LINE
5
153
100
AcDbEntity
8
0
6
ByLayer
62
256
370
-1
100
AcDbLine
10
-13.1066017178
20
-5.6066017178
11
-14.6066017178
21
-5.6066017178
0
ARC
5
154
100
AcDbEntity
8
0
6
ByLayer
62
256
370
-1
100
AcDbCircle
10
-13.1066017178
20
-4.6066017178
40
1
100
AcDbArc
50
270
51
0
0
LINE
5
155
100
AcDbEntity
8
0
6
ByLayer
62
256
370
-1
100
AcDbLine
10
-12.1066017178
20
-3.6066017178
11
-12.1066017178
21
-4.60660147938
0
ARC
5
156
100
AcDbEntity
8
0
6
ByLayer
62
256
370
-1
100
AcDbCircle
10
-8.41421356235
20
-20.4558441227
40
3.41421356235
100
AcDbArc
50
0
51
45.0000000002
0
LINE
5
157
100
AcDbEntity
8
0
6
ByLayer
62
256
370
-1
100
AcDbLine
10
-1.5
20
-14.2132034356
11
-1.5
21
-15.8406722105
0
ARC
5
158
100
AcDbEntity
8
0
6
ByLayer
62
256
370
-1
100
AcDbCircle
10
-2.06938975685
20
-15.8406722105
40
0.569389756847
100
AcDbArc
50
220.86386677
51
360
0
LINE
5
159
100
AcDbEntity
8
0
6
ByLayer
62
256
370
-1
100
AcDbLine
10
-7.43502884255
20
-16.6066017178
11
-6
21
-18.0416305603
0
LINE
5
15A
100
AcDbEntity
8
0
6
ByLayer
62
256
370
-1
100
AcDbLine
10
-5
20
-20.4558441227
11
-5
21
-24.8198051534
0
ARC
5
15B
100
AcDbEntity
8
0
6
ByLayer
62
256
370
-1
100
AcDbCircle
10
-7
20
-24.8198051534
40
2
100
AcDbArc
50
270
51
0
0
LINE
5
15C
100
AcDbEntity
8
0
6
ByLayer
62
256
370
-1
100
AcDbLine
10
-3.6066017178
20
-26.2132034356
11
0.757359312871
21
-26.2132034356
0
ARC
5
15D
100
AcDbEntity
8
0
6
ByLayer
62
256
370
-1
100
AcDbCircle
10
-3.6066017178
20
-28.2132034356
40
2
100
AcDbArc
50
90
51
180
0
LINE
5
15E
100
AcDbEntity
8
0
6
ByLayer
62
256
370
-1
100
AcDbLine
10
-7
20
-5.6066017178
11
-8.1066017178
21
-5.6066017178
0
ARC
5
15F
100
AcDbEntity
8
0
6
ByLayer
62
256
370
-1
100
AcDbCircle
10
-7
20
-3.6066017178
40
2
100
AcDbArc
50
270
51
0
0
LINE
5
160
100
AcDbEntity
8
0
6
ByLayer
62
256
370
-1
100
AcDbLine
10
-5
20
4
11
-5
21
-3.6066017178
0
LINE
5
161
100
AcDbEntity
8
0
6
ByLayer
62
256
370
-1
100
AcDbLine
10
-3.6066017178
20
-5
11
0.757359312871
21
-5
0
LINE
5
162
100
AcDbEntity
8
0
6
ByLayer
62
256
370
-1
100
AcDbLine
10
-5.6066017178
20
-7
11
-5.6066017178
21
-11.3639610307
0
ARC
5
163
100
AcDbEntity
8
0
6
ByLayer
62
256
370
-1
100
AcDbCircle
10
-3.6066017178
20
-7
40
2
100
AcDbArc
50
90
51
180
0
ARC
5
164
100
AcDbEntity
8
0
6
ByLayer
62
256
370
-1
100
AcDbCircle
10
-1.81600318806
20
-11.3639610307
40
3.79059852974
100
AcDbArc
50
180
51
220.86386677
0
LINE
5
165
100
AcDbEntity
8
0
6
ByLayer
62
256
370
-1
100
AcDbLine
10
-4.68270483655
20
-13.8440132221
11
-2.5
21
-16.2132034356
0
LINE
5
166
100
AcDbEntity
8
0
6
ByLayer
62
256
370
-1
100
AcDbLine
10
58.6396103068
20
-84.0954544295
11
58.6396103068
21
-88.8528137424
0
ARC
5
167
100
AcDbEntity
8
0
6
ByLayer
62
256
370
-1
100
AcDbCircle
10
56.6396103068
20
-88.4594154602
40
2
100
AcDbArc
50
270
51
0
0
LINE
5
168
100
AcDbEntity
8
0
6
ByLayer
62
256
370
-1
100
AcDbLine
10
60.033008589
20
-89.8528137424
11
64.3969696197
21
-89.8528137424
0
ARC
5
169
100
AcDbEntity
8
0
6
ByLayer
62
256
370
-1
100
AcDbCircle
10
60.033008589
20
-91.8528137424
40
2
100
AcDbArc
50
90
51
180
0
ARC
5
16A
100
AcDbEntity
8
0
6
ByLayer
62
256
370
-1
100
AcDbCircle
10
-17.6066017178
20
-14.2132034356
40
2
100
AcDbArc
50
270
51
0
0
LINE
5
16B
100
AcDbEntity
8
0
6
ByLayer
62
256
370
-1
100
AcDbLine
10
-15.6066017178
20
-6.6066017178
11
-15.6066017178
21
-14.2132034356
0
LINE
5
16C
100
AcDbEntity
8
0
6
ByLayer
62
256
370
-1
100
AcDbLine
10
-14.2132034356
20
-15.6066017178
11
-9.84924240493
21
-15.6066017178
0
ARC
5
16D
100
AcDbEntity
8
0
6
ByLayer
62
256
370
-1
100
AcDbCircle
10
-14.2132034356
20
-17.6066017178
40
2
100
AcDbArc
50
90
51
180
0
LINE
5
16E
100
AcDbEntity
8
0
6
ByLayer
62
256
370
-1
100
AcDbLine
10
-12.1066017178
20
-24.8198051534
11
-9.1066017178
21
-24.8198051534
0
CIRCLE
5
16F
100
AcDbEntity
8
0
6
ByLayer
62
256
370
-1
100
AcDbCircle
10
-10.6066017178
20
-31.8198051534
40
2
0
ARC
5
170
100
AcDbEntity
8
0
6
ByLayer
62
256
370
-1
100
AcDbCircle
10
-2.19238815543
20
-32.5771644663
40
3.41421356237
100
AcDbArc
50
180
51
225
0
ARC
5
171
100
AcDbEntity
8
0
6
ByLayer
62
256
370
-1
100
AcDbCircle
10
-9.84924240493
20
-40.2340187158
40
3.41421356239
100
AcDbArc
50
45.0000000002
51
90
0
LINE
5
172
100
AcDbEntity
8
0
6
ByLayer
62
256
370
-1
100
AcDbLine
10
-9.1066017178
20
-24.8198051534
11
-9.1066017178
21
-25.8198051534
0
ARC
5
173
100
AcDbEntity
8
0
6
ByLayer
62
256
370
-1
100
AcDbCircle
10
-8.1066017178
20
-25.8198051534
40
1
100
AcDbArc
50
180
51
270
0
LINE
5
174
100
AcDbEntity
8
0
6
ByLayer
62
256
370
-1
100
AcDbLine
10
-1.5
20
-35.4264068712
11
1.5
21
-35.4264068712
0
ARC
5
175
100
AcDbEntity
8
0
6
ByLayer
62
256
370
-1
100
AcDbCircle
10
8.41421356237
20
-43.1837661841
40
3.41421356237
100
AcDbArc
50
180
51
225
0
ARC
5
176
100
AcDbEntity
8
0
6
ByLayer
62
256
370
-1
100
AcDbCircle
10
0.757359312871
20
-50.8406204336
40
3.41421356239
100
AcDbArc
50
45.0000000002
51
90
0
LINE
5
177
100
AcDbEntity
8
0
6
ByLayer
62
256
370
-1
100
AcDbLine
10
1.5
20
-35.4264068712
11
1.5
21
-36.4264068712
0
ARC
5
178
100
AcDbEntity
8
0
6
ByLayer
62
256
370
-1
100
AcDbCircle
10
2.5
20
-36.4264068712
40
1
100
AcDbArc
50
180
51
270
0
ARC
5
179
100
AcDbEntity
8
0
6
ByLayer
62
256
370
-1
100
AcDbCircle
10
-8.41421356235
20
-41.6690475583
40
3.41421356235
100
AcDbArc
50
0
51
45.0000000002
0
LINE
5
17A
100
AcDbEntity
8
0
6
ByLayer
62
256
370
-1
100
AcDbLine
10
-1.5
20
-35.4264068712
11
-1.5
21
-37.0538756461
0
ARC
5
17B
100
AcDbEntity
8
0
6
ByLayer
62
256
370
-1
100
AcDbCircle
10
-2.06938975685
20
-37.0538756461
40
0.569389756847
100
AcDbArc
50
220.86386677
51
360
0
CIRCLE
5
17C
100
AcDbEntity
8
0
6
ByLayer
62
256
370
-1
100
AcDbCircle
10
-3.19744231092e-14
20
-42.4264068712
40
2
0
LINE
5
17D
100
AcDbEntity
8
0
6
ByLayer
62
256
370
-1
100
AcDbLine
10
9.1066017178
20
-46.033008589
11
12.1066017178
21
-46.033008589
0
ARC
5
17E
100
AcDbEntity
8
0
6
ByLayer
62
256
370
-1
100
AcDbCircle
10
11.3639610307
20
-61.4472221514
40
3.41421356239
100
AcDbArc
50
45.0000000002
51
90
0
LINE
5
17F
100
AcDbEntity
8
0
6
ByLayer
62
256
370
-1
100
AcDbLine
10
12.1066017178
20
-46.033008589
11
12.1066017178
21
-47.033008589
0
ARC
5
180
100
AcDbEntity
8
0
6
ByLayer
62
256
370
-1
100
AcDbCircle
10
13.1066017178
20
-47.033008589
40
1
100
AcDbArc
50
180
51
270
0
ARC
5
181
100
AcDbEntity
8
0
6
ByLayer
62
256
370
-1
100
AcDbCircle
10
2.19238815545
20
-52.2756492761
40
3.41421356235
100
AcDbArc
50
0
51
45.0000000002
0
LINE
5
182
100
AcDbEntity
8
0
6
ByLayer
62
256
370
-1
100
AcDbLine
10
9.1066017178
20
-46.033008589
11
9.1066017178
21
-47.6604773639
0
ARC
5
183
100
AcDbEntity
8
0
6
ByLayer
62
256
370
-1
100
AcDbCircle
10
8.53721196095
20
-47.6604773639
40
0.569389756847
100
AcDbArc
50
220.86386677
51
360
0
CIRCLE
5
184
100
AcDbEntity
8
0
6
ByLayer
62
256
370
-1
100
AcDbCircle
10
10.6066017178
20
-53.033008589
40
2
0
ARC
5
185
100
AcDbEntity
8
0
6
ByLayer
62
256
370
-1
100
AcDbCircle
10
21.9705627485
20
-72.0538238692
40
3.41421356239
100
AcDbArc
50
45.0000000002
51
90
0
ARC
5
186
100
AcDbEntity
8
0
6
ByLayer
62
256
370
-1
100
AcDbCircle
10
12.7989898732
20
-62.8822509939
40
3.41421356235
100
AcDbArc
50
0
51
45.0000000002
0
CIRCLE
5
187
100
AcDbEntity
8
0
6
ByLayer
62
256
370
-1
100
AcDbCircle
10
21.2132034356
20
-63.6396103068
40
2
0
ARC
5
188
100
AcDbEntity
8
0
6
ByLayer
62
256
370
-1
100
AcDbCircle
10
32.5771644663
20
-82.660425587
40
3.41421356239
100
AcDbArc
50
45.0000000002
51
90
0
ARC
5
189
100
AcDbEntity
8
0
6
ByLayer
62
256
370
-1
100
AcDbCircle
10
23.405591591
20
-73.4888527117
40
3.41421356235
100
AcDbArc
50
0
51
45.0000000002
0
CIRCLE
5
18A
100
AcDbEntity
8
0
6
ByLayer
62
256
370
-1
100
AcDbCircle
10
31.8198051534
20
-74.2462120246
40
2
0
ARC
5
18B
100
AcDbEntity
8
0
6
ByLayer
62
256
370
-1
100
AcDbCircle
10
34.0121933088
20
-84.0954544295
40
3.41421356235
100
AcDbArc
50
0
51
45.0000000002
0
CIRCLE
5
18C
100
AcDbEntity
8
0
6
ByLayer
62
256
370
-1
100
AcDbCircle
10
42.4264068712
20
-84.8528137424
40
2
0
LINE
5
18D
100
AcDbEntity
8
0
6
ByLayer
62
256
370
-1
100
AcDbLine
10
-4.6066017178
20
-34.9913780286
11
-2.5
21
-37.4264068712
0
LINE
5
18E
100
AcDbEntity
8
0
6
ByLayer
62
256
370
-1
100
AcDbLine
10
-7.43502884255
20
-37.8198051534
11
-6
21
-39.2548339959
0
LINE
5
18F
100
AcDbEntity
8
0
6
ByLayer
62
256
370
-1
100
AcDbLine
10
6
20
-45.5979797464
11
8.1066017178
21
-48.033008589
0
LINE
5
190
100
AcDbEntity
8
0
6
ByLayer
62
256
370
-1
100
AcDbLine
10
3.17157287525
20
-48.4264068712
11
4.6066017178
21
-49.8614357137
0
LINE
5
191
100
AcDbEntity
8
0
6
ByLayer
62
256
370
-1
100
AcDbLine
10
13.778174593
20
-59.033008589
11
15.2132034356
21
-60.4680374315
0
LINE
5
192
100
AcDbEntity
8
0
6
ByLayer
62
256
370
-1
100
AcDbLine
10
24.3847763108
20
-69.6396103068
11
25.8198051534
21
-71.0746391493
0
LINE
5
193
100
AcDbEntity
8
0
6
ByLayer
62
256
370
-1
100
AcDbLine
10
34.9913780286
20
-80.2462120246
11
36.4264068712
21
-81.6812408671
0
LINE
5
194
100
AcDbEntity
8
0
6
ByLayer
62
256
370
-1
100
AcDbLine
10
3.6066017178
20
-37.4264068712
11
2.5
21
-37.4264068712
0
LINE
5
195
100
AcDbEntity
8
0
6
ByLayer
62
256
370
-1
100
AcDbLine
10
5
20
-38.8198051534
11
5
21
-43.1837661841
0
LINE
5
196
100
AcDbEntity
8
0
6
ByLayer
62
256
370
-1
100
AcDbLine
10
14.2132034356
20
-48.033008589
11
13.1066017178
21
-48.033008589
0
ARC
5
197
100
AcDbEntity
8
0
6
ByLayer
62
256
370
-1
100
AcDbCircle
10
19.0208152802
20
-53.7903679019
40
3.41421356237
100
AcDbArc
50
180
51
225
0
LINE
5
198
100
AcDbEntity
8
0
6
ByLayer
62
256
370
-1
100
AcDbLine
10
19.7132034356
20
-56.6396103068
11
22.7132034356
21
-56.6396103068
0
LINE
5
199
100
AcDbEntity
8
0
6
ByLayer
62
256
370
-1
100
AcDbLine
10
22.7132034356
20
-56.6396103068
11
22.7132034356
21
-57.6396103068
0
ARC
5
19A
100
AcDbEntity
8
0
6
ByLayer
62
256
370
-1
100
AcDbCircle
10
23.7132034356
20
-57.6396103068
40
1
100
AcDbArc
50
180
51
270
0
LINE
5
19B
100
AcDbEntity
8
0
6
ByLayer
62
256
370
-1
100
AcDbLine
10
19.7132034356
20
-56.6396103068
11
19.7132034356
21
-58.2670790817
0
ARC
5
19C
100
AcDbEntity
8
0
6
ByLayer
62
256
370
-1
100
AcDbCircle
10
19.1438136787
20
-58.2670790817
40
0.569389756847
100
AcDbArc
50
220.86386677
51
360
0
LINE
5
19D
100
AcDbEntity
8
0
6
ByLayer
62
256
370
-1
100
AcDbLine
10
16.6066017178
20
-56.2045814642
11
18.7132034356
21
-58.6396103068
0
LINE
5
19E
100
AcDbEntity
8
0
6
ByLayer
62
256
370
-1
100
AcDbLine
10
15.6066017178
20
-49.4264068712
11
15.6066017178
21
-53.7903679019
0
LINE
5
19F
100
AcDbEntity
8
0
6
ByLayer
62
256
370
-1
100
AcDbLine
10
24.8198051534
20
-58.6396103068
11
23.7132034356
21
-58.6396103068
0
ARC
5
1A0
100
AcDbEntity
8
0
6
ByLayer
62
256
370
-1
100
AcDbCircle
10
29.627416998
20
-64.3969696197
40
3.41421356237
100
AcDbArc
50
180
51
225
0
LINE
5
1A1
100
AcDbEntity
8
0
6
ByLayer
62
256
370
-1
100
AcDbLine
10
30.3198051534
20
-67.2462120246
11
33.3198051534
21
-67.2462120246
0
LINE
5
1A2
100
AcDbEntity
8
0
6
ByLayer
62
256
370
-1
100
AcDbLine
10
33.3198051534
20
-67.2462120246
11
33.3198051534
21
-68.2462120246
0
ARC
5
1A3
100
AcDbEntity
8
0
6
ByLayer
62
256
370
-1
100
AcDbCircle
10
34.3198051534
20
-68.2462120246
40
1
100
AcDbArc
50
180
51
270
0
LINE
5
1A4
100
AcDbEntity
8
0
6
ByLayer
62
256
370
-1
100
AcDbLine
10
30.3198051534
20
-67.2462120246
11
30.3198051534
21
-68.8736807995
0
ARC
5
1A5
100
AcDbEntity
8
0
6
ByLayer
62
256
370
-1
100
AcDbCircle
10
29.7504153965
20
-68.8736807995
40
0.569389756847
100
AcDbArc
50
220.86386677
51
360
0
LINE
5
1A6
100
AcDbEntity
8
0
6
ByLayer
62
256
370
-1
100
AcDbLine
10
27.2132034356
20
-66.811183182
11
29.3198051534
21
-69.2462120246
0
LINE
5
1A7
100
AcDbEntity
8
0
6
ByLayer
62
256
370
-1
100
AcDbLine
10
26.2132034356
20
-60.033008589
11
26.2132034356
21
-64.3969696197
0
ARC
5
1A8
100
AcDbEntity
8
0
6
ByLayer
62
256
370
-1
100
AcDbCircle
10
40.2340187158
20
-75.0035713375
40
3.41421356237
100
AcDbArc
50
180
51
225
0
LINE
5
1A9
100
AcDbEntity
8
0
6
ByLayer
62
256
370
-1
100
AcDbLine
10
40.9264068712
20
-77.8528137424
11
43.9264068712
21
-77.8528137424
0
LINE
5
1AA
100
AcDbEntity
8
0
6
ByLayer
62
256
370
-1
100
AcDbLine
10
43.9264068712
20
-77.8528137424
11
43.9264068712
21
-78.8528137424
0
ARC
5
1AB
100
AcDbEntity
8
0
6
ByLayer
62
256
370
-1
100
AcDbCircle
10
44.9264068712
20
-78.8528137424
40
1
100
AcDbArc
50
180
51
270
0
LINE
5
1AC
100
AcDbEntity
8
0
6
ByLayer
62
256
370
-1
100
AcDbLine
10
40.9264068712
20
-77.8528137424
11
40.9264068712
21
-79.4802825173
0
ARC
5
1AD
100
AcDbEntity
8
0
6
ByLayer
62
256
370
-1
100
AcDbCircle
10
40.3570171143
20
-79.4802825173
40
0.569389756847
100
AcDbArc
50
220.86386677
51
360
0
LINE
5
1AE
100
AcDbEntity
8
0
6
ByLayer
62
256
370
-1
100
AcDbLine
10
37.8198051534
20
-77.4177848998
11
39.9264068712
21
-79.8528137424
0
LINE
5
1AF
100
AcDbEntity
8
0
6
ByLayer
62
256
370
-1
100
AcDbLine
10
36.8198051534
20
-70.6396103068
11
36.8198051534
21
-75.0035713375
0
LINE
5
1B0
100
AcDbEntity
8
0
6
ByLayer
62
256
370
-1
100
AcDbLine
10
46.033008589
20
-79.8528137424
11
44.9264068712
21
-79.8528137424
0
LINE
5
1B1
100
AcDbEntity
8
0
6
ByLayer
62
256
370
-1
100
AcDbLine
10
34.3198051534
20
-69.2462120246
11
35.4264068712
21
-69.2462120246
0
LINE
5
1B2
100
AcDbEntity
8
0
6
ByLayer
62
256
370
-1
100
AcDbLine
10
-5.6066017178
20
-28.2132034356
11
-5.6066017178
21
-32.5771644663
0
LINE
5
1B3
100
AcDbEntity
8
0
6
ByLayer
62
256
370
-1
100
AcDbLine
10
-7
20
-26.8198051534
11
-8.1066017178
21
-26.8198051534
0
LINE
5
1B4
100
AcDbEntity
8
0
6
ByLayer
62
256
370
-1
100
AcDbLine
10
-5
20
-41.6690475583
11
-5
21
-46.033008589
0
ARC
5
1B5
100
AcDbEntity
8
0
6
ByLayer
62
256
370
-1
100
AcDbCircle
10
-7
20
-46.033008589
40
2
100
AcDbArc
50
270
51
0
0
LINE
5
1B6
100
AcDbEntity
8
0
6
ByLayer
62
256
370
-1
100
AcDbLine
10
-3.6066017178
20
-47.4264068712
11
0.757359312871
21
-47.4264068712
0
ARC
5
1B7
100
AcDbEntity
8
0
6
ByLayer
62
256
370
-1
100
AcDbCircle
10
-3.6066017178
20
-49.4264068712
40
2
100
AcDbArc
50
90
51
180
0
LINE
5
1B8
100
AcDbEntity
8
0
6
ByLayer
62
256
370
-1
100
AcDbLine
10
5.6066017178
20
-52.2756492761
11
5.6066017178
21
-56.6396103068
0
ARC
5
1B9
100
AcDbEntity
8
0
6
ByLayer
62
256
370
-1
100
AcDbCircle
10
3.6066017178
20
-56.6396103068
40
2
100
AcDbArc
50
270
51
0
0
LINE
5
1BA
100
AcDbEntity
8
0
6
ByLayer
62
256
370
-1
100
AcDbLine
10
7
20
-58.033008589
11
11.3639610307
21
-58.033008589
0
ARC
5
1BB
100
AcDbEntity
8
0
6
ByLayer
62
256
370
-1
100
AcDbCircle
10
7
20
-60.033008589
40
2
100
AcDbArc
50
90
51
180
0
LINE
5
1BC
100
AcDbEntity
8
0
6
ByLayer
62
256
370
-1
100
AcDbLine
10
16.2132034356
20
-62.8822509939
11
16.2132034356
21
-67.2462120246
0
ARC
5
1BD
100
AcDbEntity
8
0
6
ByLayer
62
256
370
-1
100
AcDbCircle
10
14.2132034356
20
-67.2462120246
40
2
100
AcDbArc
50
270
51
0
0
LINE
5
1BE
100
AcDbEntity
8
0
6
ByLayer
62
256
370
-1
100
AcDbLine
10
17.6066017178
20
-68.6396103068
11
21.9705627485
21
-68.6396103068
0
ARC
5
1BF
100
AcDbEntity
8
0
6
ByLayer
62
256
370
-1
100
AcDbCircle
10
17.6066017178
20
-70.6396103068
40
2
100
AcDbArc
50
90
51
180
0
LINE
5
1C0
100
AcDbEntity
8
0
6
ByLayer
62
256
370
-1
100
AcDbLine
10
26.8198051534
20
-73.4888527117
11
26.8198051534
21
-77.8528137424
0
ARC
5
1C1
100
AcDbEntity
8
0
6
ByLayer
62
256
370
-1
100
AcDbCircle
10
24.8198051534
20
-77.8528137424
40
2
100
AcDbArc
50
270
51
0
0
LINE
5
1C2
100
AcDbEntity
8
0
6
ByLayer
62
256
370
-1
100
AcDbLine
10
28.2132034356
20
-79.2462120246
11
32.5771644663
21
-79.2462120246
0
ARC
5
1C3
100
AcDbEntity
8
0
6
ByLayer
62
256
370
-1
100
AcDbCircle
10
28.2132034356
20
-81.2462120246
40
2
100
AcDbArc
50
90
51
180
0
ARC
5
1C4
100
AcDbEntity
8
0
6
ByLayer
62
256
370
-1
100
AcDbCircle
10
61.4472221514
20
-96.2167747731
40
3.41421356237
100
AcDbArc
50
180
51
225
0
ARC
5
1C5
100
AcDbEntity
8
0
6
ByLayer
62
256
370
-1
100
AcDbCircle
10
53.7903679019
20
-103.873629023
40
3.41421356239
100
AcDbArc
50
45.0000000002
51
90
0
LINE
5
1C6
100
AcDbEntity
8
0
6
ByLayer
62
256
370
-1
100
AcDbLine
10
59.033008589
20
-98.6309883354
11
56.2045814642
21
-101.45941546
0
ARC
5
1C7
100
AcDbEntity
8
0
6
ByLayer
62
256
370
-1
100
AcDbCircle
10
43.1837661841
20
-93.2670273048
40
3.41421356239
100
AcDbArc
50
45.0000000002
51
90
0
ARC
5
1C8
100
AcDbEntity
8
0
6
ByLayer
62
256
370
-1
100
AcDbCircle
10
44.6187950266
20
-94.7020561473
40
3.41421356235
100
AcDbArc
50
0
51
45.0000000002
0
LINE
5
1C9
100
AcDbEntity
8
0
6
ByLayer
62
256
370
-1
100
AcDbLine
10
45.5979797464
20
-90.8528137424
11
47.033008589
21
-92.2878425849
0
LINE
5
1CA
100
AcDbEntity
8
0
6
ByLayer
62
256
370
-1
100
AcDbLine
10
37.4264068712
20
-84.0954544295
11
37.4264068712
21
-88.4594154602
0
ARC
5
1CB
100
AcDbEntity
8
0
6
ByLayer
62
256
370
-1
100
AcDbCircle
10
35.4264068712
20
-88.4594154602
40
2
100
AcDbArc
50
270
51
0
0
LINE
5
1CC
100
AcDbEntity
8
0
6
ByLayer
62
256
370
-1
100
AcDbLine
10
38.8198051534
20
-89.8528137424
11
43.1837661841
21
-89.8528137424
0
ARC
5
1CD
100
AcDbEntity
8
0
6
ByLayer
62
256
370
-1
100
AcDbCircle
10
38.8198051534
20
-91.8528137424
40
2
100
AcDbArc
50
90
51
180
0
ARC
5
1CE
100
AcDbEntity
8
0
6
ByLayer
62
256
370
-1
100
AcDbCircle
10
50.8406204336
20
-85.6101730553
40
3.41421356237
100
AcDbArc
50
180
51
225
0
LINE
5
1CF
100
AcDbEntity
8
0
6
ByLayer
62
256
370
-1
100
AcDbLine
10
51.533008589
20
-88.4594154602
11
54.533008589
21
-88.4594154602
0
LINE
5
1D0
100
AcDbEntity
8
0
6
ByLayer
62
256
370
-1
100
AcDbLine
10
54.533008589
20
-88.4594154602
11
54.533008589
21
-89.4594154602
0
ARC
5
1D1
100
AcDbEntity
8
0
6
ByLayer
62
256
370
-1
100
AcDbCircle
10
55.533008589
20
-89.4594154602
40
1
100
AcDbArc
50
180
51
270
0
LINE
5
1D2
100
AcDbEntity
8
0
6
ByLayer
62
256
370
-1
100
AcDbLine
10
51.533008589
20
-88.4594154602
11
51.533008589
21
-90.0868842351
0
ARC
5
1D3
100
AcDbEntity
8
0
6
ByLayer
62
256
370
-1
100
AcDbCircle
10
50.9636188321
20
-90.0868842351
40
0.569389756847
100
AcDbArc
50
220.86386677
51
360
0
LINE
5
1D4
100
AcDbEntity
8
0
6
ByLayer
62
256
370
-1
100
AcDbLine
10
48.4264068712
20
-88.0243866176
11
50.533008589
21
-90.4594154602
0
LINE
5
1D5
100
AcDbEntity
8
0
6
ByLayer
62
256
370
-1
100
AcDbLine
10
47.4264068712
20
-81.2462120246
11
47.4264068712
21
-85.6101730553
0
LINE
5
1D6
100
AcDbEntity
8
0
6
ByLayer
62
256
370
-1
100
AcDbLine
10
56.6396103068
20
-90.4594154602
11
55.533008589
21
-90.4594154602
0
LINE
5
1D7
100
AcDbEntity
8
0
6
ByLayer
62
256
370
-1
100
AcDbLine
10
58.033008589
20
-91.8528137424
11
58.033008589
21
-96.2167747731
0
CIRCLE
5
1D8
100
AcDbEntity
8
0
6
ByLayer
62
256
370
-1
100
AcDbCircle
10
53.033008589
20
-95.4594154602
40
2
0
LINE
5
1D9
100
AcDbEntity
8
0
6
ByLayer
62
256
370
-1
100
AcDbLine
10
-22.7132034356
20
-14.2132034356
11
-19.7132034356
21
-14.2132034356
0
CIRCLE
5
1DA
100
AcDbEntity
8
0
6
ByLayer
62
256
370
-1
100
AcDbCircle
10
-21.2132034356
20
-21.2132034356
40
2
0
ARC
5
1DB
100
AcDbEntity
8
0
6
ByLayer
62
256
370
-1
100
AcDbCircle
10
-20.4558441227
20
-29.627416998
40
3.41421356239
100
AcDbArc
50
45.0000000002
51
90
0
LINE
5
1DC
100
AcDbEntity
8
0
6
ByLayer
62
256
370
-1
100
AcDbLine
10
-19.7132034356
20
-14.2132034356
11
-19.7132034356
21
-15.2132034356
0
ARC
5
1DD
100
AcDbEntity
8
0
6
ByLayer
62
256
370
-1
100
AcDbCircle
10
-18.7132034356
20
-15.2132034356
40
1
100
AcDbArc
50
180
51
270
0
ARC
5
1DE
100
AcDbEntity
8
0
6
ByLayer
62
256
370
-1
100
AcDbCircle
10
-25.2132034356
20
-17.2132034356
40
1
100
AcDbArc
50
90
51
180
0
LINE
5
1DF
100
AcDbEntity
8
0
6
ByLayer
62
256
370
-1
100
AcDbLine
10
-23.7132034356
20
-16.2132034356
11
-25.2132034356
21
-16.2132034356
0
ARC
5
1E0
100
AcDbEntity
8
0
6
ByLayer
62
256
370
-1
100
AcDbCircle
10
-23.7132034356
20
-15.2132034356
40
1
100
AcDbArc
50
270
51
0
0
LINE
5
1E1
100
AcDbEntity
8
0
6
ByLayer
62
256
370
-1
100
AcDbLine
10
-22.7132034356
20
-14.2132034356
11
-22.7132034356
21
-15.2132031972
0
ARC
5
1E2
100
AcDbEntity
8
0
6
ByLayer
62
256
370
-1
100
AcDbCircle
10
-19.0208152801
20
-31.0624458405
40
3.41421356235
100
AcDbArc
50
0
51
45.0000000002
0
LINE
5
1E3
100
AcDbEntity
8
0
6
ByLayer
62
256
370
-1
100
AcDbLine
10
-12.1066017178
20
-24.8198051534
11
-12.1066017178
21
-26.4472739283
0
ARC
5
1E4
100
AcDbEntity
8
0
6
ByLayer
62
256
370
-1
100
AcDbCircle
10
-12.6759914746
20
-26.4472739283
40
0.569389756847
100
AcDbArc
50
220.86386677
51
360
0
LINE
5
1E5
100
AcDbEntity
8
0
6
ByLayer
62
256
370
-1
100
AcDbLine
10
-18.0416305603
20
-27.2132034356
11
-16.6066017178
21
-28.6482322781
0
LINE
5
1E6
100
AcDbEntity
8
0
6
ByLayer
62
256
370
-1
100
AcDbLine
10
-15.6066017178
20
-31.0624458405
11
-15.6066017178
21
-35.4264068712
0
ARC
5
1E7
100
AcDbEntity
8
0
6
ByLayer
62
256
370
-1
100
AcDbCircle
10
-17.6066017178
20
-35.4264068712
40
2
100
AcDbArc
50
270
51
0
0
LINE
5
1E8
100
AcDbEntity
8
0
6
ByLayer
62
256
370
-1
100
AcDbLine
10
-14.2132034356
20
-36.8198051534
11
-9.84924240493
21
-36.8198051534
0
ARC
5
1E9
100
AcDbEntity
8
0
6
ByLayer
62
256
370
-1
100
AcDbCircle
10
-14.2132034356
20
-38.8198051534
40
2
100
AcDbArc
50
90
51
180
0
LINE
5
1EA
100
AcDbEntity
8
0
6
ByLayer
62
256
370
-1
100
AcDbLine
10
-17.6066017178
20
-16.2132034356
11
-18.7132034356
21
-16.2132034356
0
LINE
5
1EB
100
AcDbEntity
8
0
6
ByLayer
62
256
370
-1
100
AcDbLine
10
-16.2132034356
20
-17.6066017178
11
-16.2132034356
21
-21.9705627485
0
ARC
5
1EC
100
AcDbEntity
8
0
6
ByLayer
62
256
370
-1
100
AcDbCircle
10
-12.4226049059
20
-21.9705627485
40
3.79059852974
100
AcDbArc
50
180
51
220.86386677
0
LINE
5
1ED
100
AcDbEntity
8
0
6
ByLayer
62
256
370
-1
100
AcDbLine
10
-15.2893065544
20
-24.4506149399
11
-13.1066017178
21
-26.8198051534
0
LINE
5
1EE
100
AcDbEntity
8
0
6
ByLayer
62
256
370
-1
100
AcDbLine
10
48.033008589
20
-94.7020561473
11
48.033008589
21
-99.4594154602
0
ARC
5
1EF
100
AcDbEntity
8
0
6
ByLayer
62
256
370
-1
100
AcDbCircle
10
46.033008589
20
-99.066017178
40
2
100
AcDbArc
50
270
51
0
0
LINE
5
1F0
100
AcDbEntity
8
0
6
ByLayer
62
256
370
-1
100
AcDbLine
10
49.4264068712
20
-100.45941546
11
53.7903679019
21
-100.45941546
0
ARC
5
1F1
100
AcDbEntity
8
0
6
ByLayer
62
256
370
-1
100
AcDbCircle
10
49.4264068712
20
-102.45941546
40
2
100
AcDbArc
50
90
51
180
0
ARC
5
1F2
100
AcDbEntity
8
0
6
ByLayer
62
256
370
-1
100
AcDbCircle
10
-28.2132034356
20
-24.8198051534
40
2
100
AcDbArc
50
270
51
0
0
LINE
5
1F3
100
AcDbEntity
8
0
6
ByLayer
62
256
370
-1
100
AcDbLine
10
-26.2132034356
20
-17.2132034356
11
-26.2132034356
21
-24.8198051534
0
LINE
5
1F4
100
AcDbEntity
8
0
6
ByLayer
62
256
370
-1
100
AcDbLine
10
-24.8198051534
20
-26.2132034356
11
-20.4558441227
21
-26.2132034356
0
ARC
5
1F5
100
AcDbEntity
8
0
6
ByLayer
62
256
370
-1
100
AcDbCircle
10
-24.8198051534
20
-28.2132034356
40
2
100
AcDbArc
50
90
51
180
0
LINE
5
1F6
100
AcDbEntity
8
0
6
ByLayer
62
256
370
-1
100
AcDbLine
10
-22.7132034356
20
-35.4264068712
11
-19.7132034356
21
-35.4264068712
0
CIRCLE
5
1F7
100
AcDbEntity
8
0
6
ByLayer
62
256
370
-1
100
AcDbCircle
10
-21.2132034356
20
-42.4264068712
40
2
0
ARC
5
1F8
100
AcDbEntity
8
0
6
ByLayer
62
256
370
-1
100
AcDbCircle
10
-12.7989898732
20
-43.1837661841
40
3.41421356237
100
AcDbArc
50
180
51
225
0
ARC
5
1F9
100
AcDbEntity
8
0
6
ByLayer
62
256
370
-1
100
AcDbCircle
10
-20.4558441227
20
-50.8406204336
40
3.41421356239
100
AcDbArc
50
45.0000000002
51
90
0
LINE
5
1FA
100
AcDbEntity
8
0
6
ByLayer
62
256
370
-1
100
AcDbLine
10
-19.7132034356
20
-35.4264068712
11
-19.7132034356
21
-36.4264068712
0
ARC
5
1FB
100
AcDbEntity
8
0
6
ByLayer
62
256
370
-1
100
AcDbCircle
10
-18.7132034356
20
-36.4264068712
40
1
100
AcDbArc
50
180
51
270
0
LINE
5
1FC
100
AcDbEntity
8
0
6
ByLayer
62
256
370
-1
100
AcDbLine
10
-12.1066017178
20
-46.033008589
11
-9.1066017178
21
-46.033008589
0
ARC
5
1FD
100
AcDbEntity
8
0
6
ByLayer
62
256
370
-1
100
AcDbCircle
10
-2.19238815543
20
-53.7903679019
40
3.41421356237
100
AcDbArc
50
180
51
225
0
ARC
5
1FE
100
AcDbEntity
8
0
6
ByLayer
62
256
370
-1
100
AcDbCircle
10
-9.84924240493
20
-61.4472221514
40
3.41421356239
100
AcDbArc
50
45.0000000002
51
90
0
LINE
5
1FF
100
AcDbEntity
8
0
6
ByLayer
62
256
370
-1
100
AcDbLine
10
-9.1066017178
20
-46.033008589
11
-9.1066017178
21
-47.033008589
0
ARC
5
200
100
AcDbEntity
8
0
6
ByLayer
62
256
370
-1
100
AcDbCircle
10
-8.1066017178
20
-47.033008589
40
1
100
AcDbArc
50
180
51
270
0
ARC
5
201
100
AcDbEntity
8
0
6
ByLayer
62
256
370
-1
100
AcDbCircle
10
-19.0208152801
20
-52.2756492761
40
3.41421356235
100
AcDbArc
50
0
51
45.0000000002
0
LINE
5
202
100
AcDbEntity
8
0
6
ByLayer
62
256
370
-1
100
AcDbLine
10
-12.1066017178
20
-46.033008589
11
-12.1066017178
21
-47.6604773639
0
ARC
5
203
100
AcDbEntity
8
0
6
ByLayer
62
256
370
-1
100
AcDbCircle
10
-12.6759914746
20
-47.6604773639
40
0.569389756847
100
AcDbArc
50
220.86386677
51
360
0
CIRCLE
5
204
100
AcDbEntity
8
0
6
ByLayer
62
256
370
-1
100
AcDbCircle
10
-10.6066017178
20
-53.033008589
40
2
0
LINE
5
205
100
AcDbEntity
8
0
6
ByLayer
62
256
370
-1
100
AcDbLine
10
-1.5
20
-56.6396103068
11
1.5
21
-56.6396103068
0
ARC
5
206
100
AcDbEntity
8
0
6
ByLayer
62
256
370
-1
100
AcDbCircle
10
0.757359312871
20
-72.0538238692
40
3.41421356239
100
AcDbArc
50
45.0000000002
51
90
0
LINE
5
207
100
AcDbEntity
8
0
6
ByLayer
62
256
370
-1
100
AcDbLine
10
1.5
20
-56.6396103068
11
1.5
21
-57.6396103068
0
ARC
5
208
100
AcDbEntity
8
0
6
ByLayer
62
256
370
-1
100
AcDbCircle
10
2.5
20
-57.6396103068
40
1
100
AcDbArc
50
180
51
270
0
ARC
5
209
100
AcDbEntity
8
0
6
ByLayer
62
256
370
-1
100
AcDbCircle
10
-8.41421356235
20
-62.8822509939
40
3.41421356235
100
AcDbArc
50
0
51
45.0000000002
0
LINE
5
20A
100
AcDbEntity
8
0
6
ByLayer
62
256
370
-1
100
AcDbLine
10
-1.5
20
-56.6396103068
11
-1.5
21
-58.2670790817
0
ARC
5
20B
100
AcDbEntity
8
0
6
ByLayer
62
256
370
-1
100
AcDbCircle
10
-2.06938975685
20
-58.2670790817
40
0.569389756847
100
AcDbArc
50
220.86386677
51
360
0
CIRCLE
5
20C
100
AcDbEntity
8
0
6
ByLayer
62
256
370
-1
100
AcDbCircle
10
-3.90798504668e-14
20
-63.6396103068
40
2
0
ARC
5
20D
100
AcDbEntity
8
0
6
ByLayer
62
256
370
-1
100
AcDbCircle
10
11.3639610307
20
-82.660425587
40
3.41421356239
100
AcDbArc
50
45.0000000002
51
90
0
ARC
5
20E
100
AcDbEntity
8
0
6
ByLayer
62
256
370
-1
100
AcDbCircle
10
2.19238815545
20
-73.4888527117
40
3.41421356235
100
AcDbArc
50
0
51
45.0000000002
0
CIRCLE
5
20F
100
AcDbEntity
8
0
6
ByLayer
62
256
370
-1
100
AcDbCircle
10
10.6066017178
20
-74.2462120246
40
2
0
ARC
5
210
100
AcDbEntity
8
0
6
ByLayer
62
256
370
-1
100
AcDbCircle
10
21.9705627485
20
-93.2670273048
40
3.41421356239
100
AcDbArc
50
45.0000000002
51
90
0
ARC
5
211
100
AcDbEntity
8
0
6
ByLayer
62
256
370
-1
100
AcDbCircle
10
12.7989898732
20
-84.0954544295
40
3.41421356235
100
AcDbArc
50
0
51
45.0000000002
0
CIRCLE
5
212
100
AcDbEntity
8
0
6
ByLayer
62
256
370
-1
100
AcDbCircle
10
21.2132034356
20
-84.8528137424
40
2
0
ARC
5
213
100
AcDbEntity
8
0
6
ByLayer
62
256
370
-1
100
AcDbCircle
10
23.405591591
20
-94.7020561473
40
3.41421356235
100
AcDbArc
50
0
51
45.0000000002
0
CIRCLE
5
214
100
AcDbEntity
8
0
6
ByLayer
62
256
370
-1
100
AcDbCircle
10
31.8198051534
20
-95.4594154602
40
2
0
LINE
5
215
100
AcDbEntity
8
0
6
ByLayer
62
256
370
-1
100
AcDbLine
10
-15.2132034356
20
-45.5979797464
11
-13.1066017178
21
-48.033008589
0
LINE
5
216
100
AcDbEntity
8
0
6
ByLayer
62
256
370
-1
100
AcDbLine
10
-18.0416305603
20
-48.4264068712
11
-16.6066017178
21
-49.8614357137
0
LINE
5
217
100
AcDbEntity
8
0
6
ByLayer
62
256
370
-1
100
AcDbLine
10
-4.6066017178
20
-56.2045814642
11
-2.5
21
-58.6396103068
0
LINE
5
218
100
AcDbEntity
8
0
6
ByLayer
62
256
370
-1
100
AcDbLine
10
-7.43502884255
20
-59.033008589
11
-6
21
-60.4680374315
0
LINE
5
219
100
AcDbEntity
8
0
6
ByLayer
62
256
370
-1
100
AcDbLine
10
3.17157287525
20
-69.6396103068
11
4.6066017178
21
-71.0746391493
0
LINE
5
21A
100
AcDbEntity
8
0
6
ByLayer
62
256
370
-1
100
AcDbLine
10
13.778174593
20
-80.2462120246
11
15.2132034356
21
-81.6812408671
0
LINE
5
21B
100
AcDbEntity
8
0
6
ByLayer
62
256
370
-1
100
AcDbLine
10
24.3847763108
20
-90.8528137424
11
25.8198051534
21
-92.2878425849
0
LINE
5
21C
100
AcDbEntity
8
0
6
ByLayer
62
256
370
-1
100
AcDbLine
10
-7
20
-48.033008589
11
-8.1066017178
21
-48.033008589
0
LINE
5
21D
100
AcDbEntity
8
0
6
ByLayer
62
256
370
-1
100
AcDbLine
10
-5.6066017178
20
-49.4264068712
11
-5.6066017178
21
-53.7903679019
0
LINE
5
21E
100
AcDbEntity
8
0
6
ByLayer
62
256
370
-1
100
AcDbLine
10
3.6066017178
20
-58.6396103068
11
2.5
21
-58.6396103068
0
ARC
5
21F
100
AcDbEntity
8
0
6
ByLayer
62
256
370
-1
100
AcDbCircle
10
8.41421356237
20
-64.3969696197
40
3.41421356237
100
AcDbArc
50
180
51
225
0
LINE
5
220
100
AcDbEntity
8
0
6
ByLayer
62
256
370
-1
100
AcDbLine
10
9.1066017178
20
-67.2462120246
11
12.1066017178
21
-67.2462120246
0
LINE
5
221
100
AcDbEntity
8
0
6
ByLayer
62
256
370
-1
100
AcDbLine
10
12.1066017178
20
-67.2462120246
11
12.1066017178
21
-68.2462120246
0
ARC
5
222
100
AcDbEntity
8
0
6
ByLayer
62
256
370
-1
100
AcDbCircle
10
13.1066017178
20
-68.2462120246
40
1
100
AcDbArc
50
180
51
270
0
LINE
5
223
100
AcDbEntity
8
0
6
ByLayer
62
256
370
-1
100
AcDbLine
10
9.1066017178
20
-67.2462120246
11
9.1066017178
21
-68.8736807995
0
ARC
5
224
100
AcDbEntity
8
0
6
ByLayer
62
256
370
-1
100
AcDbCircle
10
8.53721196095
20
-68.8736807995
40
0.569389756847
100
AcDbArc
50
220.86386677
51
360
0
LINE
5
225
100
AcDbEntity
8
0
6
ByLayer
62
256
370
-1
100
AcDbLine
10
6
20
-66.811183182
11
8.1066017178
21
-69.2462120246
0
LINE
5
226
100
AcDbEntity
8
0
6
ByLayer
62
256
370
-1
100
AcDbLine
10
5
20
-60.033008589
11
5
21
-64.3969696197
0
LINE
5
227
100
AcDbEntity
8
0
6
ByLayer
62
256
370
-1
100
AcDbLine
10
14.2132034356
20
-69.2462120246
11
13.1066017178
21
-69.2462120246
0
ARC
5
228
100
AcDbEntity
8
0
6
ByLayer
62
256
370
-1
100
AcDbCircle
10
19.0208152802
20
-75.0035713375
40
3.41421356237
100
AcDbArc
50
180
51
225
0
LINE
5
229
100
AcDbEntity
8
0
6
ByLayer
62
256
370
-1
100
AcDbLine
10
19.7132034356
20
-77.8528137424
11
22.7132034356
21
-77.8528137424
0
LINE
5
22A
100
AcDbEntity
8
0
6
ByLayer
62
256
370
-1
100
AcDbLine
10
22.7132034356
20
-77.8528137424
11
22.7132034356
21
-78.8528137424
0
ARC
5
22B
100
AcDbEntity
8
0
6
ByLayer
62
256
370
-1
100
AcDbCircle
10
23.7132034356
20
-78.8528137424
40
1
100
AcDbArc
50
180
51
270
0
LINE
5
22C
100
AcDbEntity
8
0
6
ByLayer
62
256
370
-1
100
AcDbLine
10
19.7132034356
20
-77.8528137424
11
19.7132034356
21
-79.4802825173
0
ARC
5
22D
100
AcDbEntity
8
0
6
ByLayer
62
256
370
-1
100
AcDbCircle
10
19.1438136787
20
-79.4802825173
40
0.569389756847
100
AcDbArc
50
220.86386677
51
360
0
LINE
5
22E
100
AcDbEntity
8
0
6
ByLayer
62
256
370
-1
100
AcDbLine
10
16.6066017178
20
-77.4177848998
11
18.7132034356
21
-79.8528137424
0
LINE
5
22F
100
AcDbEntity
8
0
6
ByLayer
62
256
370
-1
100
AcDbLine
10
15.6066017178
20
-70.6396103068
11
15.6066017178
21
-75.0035713375
0
ARC
5
230
100
AcDbEntity
8
0
6
ByLayer
62
256
370
-1
100
AcDbCircle
10
29.627416998
20
-85.6101730553
40
3.41421356237
100
AcDbArc
50
180
51
225
0
LINE
5
231
100
AcDbEntity
8
0
6
ByLayer
62
256
370
-1
100
AcDbLine
10
30.3198051534
20
-88.4594154602
11
33.3198051534
21
-88.4594154602
0
LINE
5
232
100
AcDbEntity
8
0
6
ByLayer
62
256
370
-1
100
AcDbLine
10
33.3198051534
20
-88.4594154602
11
33.3198051534
21
-89.4594154602
0
ARC
5
233
100
AcDbEntity
8
0
6
ByLayer
62
256
370
-1
100
AcDbCircle
10
34.3198051534
20
-89.4594154602
40
1
100
AcDbArc
50
180
51
270
0
LINE
5
234
100
AcDbEntity
8
0
6
ByLayer
62
256
370
-1
100
AcDbLine
10
30.3198051534
20
-88.4594154602
11
30.3198051534
21
-90.0868842351
0
ARC
5
235
100
AcDbEntity
8
0
6
ByLayer
62
256
370
-1
100
AcDbCircle
10
29.7504153965
20
-90.0868842351
40
0.569389756847
100
AcDbArc
50
220.86386677
51
360
0
LINE
5
236
100
AcDbEntity
8
0
6
ByLayer
62
256
370
-1
100
AcDbLine
10
27.2132034356
20
-88.0243866176
11
29.3198051534
21
-90.4594154602
0
LINE
5
237
100
AcDbEntity
8
0
6
ByLayer
62
256
370
-1
100
AcDbLine
10
26.2132034356
20
-81.2462120246
11
26.2132034356
21
-85.6101730553
0
LINE
5
238
100
AcDbEntity
8
0
6
ByLayer
62
256
370
-1
100
AcDbLine
10
35.4264068712
20
-90.4594154602
11
34.3198051534
21
-90.4594154602
0
LINE
5
239
100
AcDbEntity
8
0
6
ByLayer
62
256
370
-1
100
AcDbLine
10
23.7132034356
20
-79.8528137424
11
24.8198051534
21
-79.8528137424
0
LINE
5
23A
100
AcDbEntity
8
0
6
ByLayer
62
256
370
-1
100
AcDbLine
10
-16.2132034356
20
-38.8198051534
11
-16.2132034356
21
-43.1837661841
0
LINE
5
23B
100
AcDbEntity
8
0
6
ByLayer
62
256
370
-1
100
AcDbLine
10
-17.6066017178
20
-37.4264068712
11
-18.7132034356
21
-37.4264068712
0
LINE
5
23C
100
AcDbEntity
8
0
6
ByLayer
62
256
370
-1
100
AcDbLine
10
-15.6066017178
20
-52.2756492761
11
-15.6066017178
21
-56.6396103068
0
ARC
5
23D
100
AcDbEntity
8
0
6
ByLayer
62
256
370
-1
100
AcDbCircle
10
-17.6066017178
20
-56.6396103068
40
2
100
AcDbArc
50
270
51
0
0
LINE
5
23E
100
AcDbEntity
8
0
6
ByLayer
62
256
370
-1
100
AcDbLine
10
-14.2132034356
20
-58.033008589
11
-9.84924240493
21
-58.033008589
0
ARC
5
23F
100
AcDbEntity
8
0
6
ByLayer
62
256
370
-1
100
AcDbCircle
10
-14.2132034356
20
-60.033008589
40
2
100
AcDbArc
50
90
51
180
0
LINE
5
240
100
AcDbEntity
8
0
6
ByLayer
62
256
370
-1
100
AcDbLine
10
-5
20
-62.8822509939
11
-5
21
-67.2462120246
0
ARC
5
241
100
AcDbEntity
8
0
6
ByLayer
62
256
370
-1
100
AcDbCircle
10
-7
20
-67.2462120246
40
2
100
AcDbArc
50
270
51
0
0
LINE
5
242
100
AcDbEntity
8
0
6
ByLayer
62
256
370
-1
100
AcDbLine
10
-3.6066017178
20
-68.6396103068
11
0.757359312871
21
-68.6396103068
0
ARC
5
243
100
AcDbEntity
8
0
6
ByLayer
62
256
370
-1
100
AcDbCircle
10
-3.6066017178
20
-70.6396103068
40
2
100
AcDbArc
50
90
51
180
0
LINE
5
244
100
AcDbEntity
8
0
6
ByLayer
62
256
370
-1
100
AcDbLine
10
5.6066017178
20
-73.4888527117
11
5.6066017178
21
-77.8528137424
0
ARC
5
245
100
AcDbEntity
8
0
6
ByLayer
62
256
370
-1
100
AcDbCircle
10
3.6066017178
20
-77.8528137424
40
2
100
AcDbArc
50
270
51
0
0
LINE
5
246
100
AcDbEntity
8
0
6
ByLayer
62
256
370
-1
100
AcDbLine
10
7
20
-79.2462120246
11
11.3639610307
21
-79.2462120246
0
ARC
5
247
100
AcDbEntity
8
0
6
ByLayer
62
256
370
-1
100
AcDbCircle
10
7
20
-81.2462120246
40
2
100
AcDbArc
50
90
51
180
0
LINE
5
248
100
AcDbEntity
8
0
6
ByLayer
62
256
370
-1
100
AcDbLine
10
16.2132034356
20
-84.0954544295
11
16.2132034356
21
-88.4594154602
0
ARC
5
249
100
AcDbEntity
8
0
6
ByLayer
62
256
370
-1
100
AcDbCircle
10
14.2132034356
20
-88.4594154602
40
2
100
AcDbArc
50
270
51
0
0
LINE
5
24A
100
AcDbEntity
8
0
6
ByLayer
62
256
370
-1
100
AcDbLine
10
17.6066017178
20
-89.8528137424
11
21.9705627485
21
-89.8528137424
0
ARC
5
24B
100
AcDbEntity
8
0
6
ByLayer
62
256
370
-1
100
AcDbCircle
10
17.6066017178
20
-91.8528137424
40
2
100
AcDbArc
50
90
51
180
0
ARC
5
24C
100
AcDbEntity
8
0
6
ByLayer
62
256
370
-1
100
AcDbCircle
10
50.8406204336
20
-106.823376491
40
3.41421356237
100
AcDbArc
50
180
51
225
0
ARC
5
24D
100
AcDbEntity
8
0
6
ByLayer
62
256
370
-1
100
AcDbCircle
10
43.1837661841
20
-114.48023074
40
3.41421356239
100
AcDbArc
50
45.0000000002
51
90
0
LINE
5
24E
100
AcDbEntity
8
0
6
ByLayer
62
256
370
-1
100
AcDbLine
10
48.4264068712
20
-109.237590053
11
45.5979797464
21
-112.066017178
0
ARC
5
24F
100
AcDbEntity
8
0
6
ByLayer
62
256
370
-1
100
AcDbCircle
10
32.5771644663
20
-103.873629023
40
3.41421356239
100
AcDbArc
50
45.0000000002
51
90
0
ARC
5
250
100
AcDbEntity
8
0
6
ByLayer
62
256
370
-1
100
AcDbCircle
10
34.0121933088
20
-105.308657865
40
3.41421356235
100
AcDbArc
50
0
51
45.0000000002
0
LINE
5
251
100
AcDbEntity
8
0
6
ByLayer
62
256
370
-1
100
AcDbLine
10
34.9913780286
20
-101.45941546
11
36.4264068712
21
-102.894444303
0
LINE
5
252
100
AcDbEntity
8
0
6
ByLayer
62
256
370
-1
100
AcDbLine
10
26.8198051534
20
-94.7020561473
11
26.8198051534
21
-99.066017178
0
ARC
5
253
100
AcDbEntity
8
0
6
ByLayer
62
256
370
-1
100
AcDbCircle
10
24.8198051534
20
-99.066017178
40
2
100
AcDbArc
50
270
51
0
0
LINE
5
254
100
AcDbEntity
8
0
6
ByLayer
62
256
370
-1
100
AcDbLine
10
28.2132034356
20
-100.45941546
11
32.5771644663
21
-100.45941546
0
ARC
5
255
100
AcDbEntity
8
0
6
ByLayer
62
256
370
-1
100
AcDbCircle
10
28.2132034356
20
-102.45941546
40
2
100
AcDbArc
50
90
51
180
0
ARC
5
256
100
AcDbEntity
8
0
6
ByLayer
62
256
370
-1
100
AcDbCircle
10
40.2340187158
20
-96.2167747731
40
3.41421356237
100
AcDbArc
50
180
51
225
0
LINE
5
257
100
AcDbEntity
8
0
6
ByLayer
62
256
370
-1
100
AcDbLine
10
40.9264068712
20
-99.066017178
11
43.9264068712
21
-99.066017178
0
LINE
5
258
100
AcDbEntity
8
0
6
ByLayer
62
256
370
-1
100
AcDbLine
10
43.9264068712
20
-99.066017178
11
43.9264068712
21
-100.066017178
0
ARC
5
259
100
AcDbEntity
8
0
6
ByLayer
62
256
370
-1
100
AcDbCircle
10
44.9264068712
20
-100.066017178
40
1
100
AcDbArc
50
180
51
270
0
LINE
5
25A
100
AcDbEntity
8
0
6
ByLayer
62
256
370
-1
100
AcDbLine
10
40.9264068712
20
-99.066017178
11
40.9264068712
21
-100.693485953
0
ARC
5
25B
100
AcDbEntity
8
0
6
ByLayer
62
256
370
-1
100
AcDbCircle
10
40.3570171143
20
-100.693485953
40
0.569389756847
100
AcDbArc
50
220.86386677
51
360
0
LINE
5
25C
100
AcDbEntity
8
0
6
ByLayer
62
256
370
-1
100
AcDbLine
10
37.8198051534
20
-98.6309883354
11
39.9264068712
21
-101.066017178
0
LINE
5
25D
100
AcDbEntity
8
0
6
ByLayer
62
256
370
-1
100
AcDbLine
10
36.8198051534
20
-91.8528137424
11
36.8198051534
21
-96.2167747731
0
LINE
5
25E
100
AcDbEntity
8
0
6
ByLayer
62
256
370
-1
100
AcDbLine
10
46.033008589
20
-101.066017178
11
44.9264068712
21
-101.066017178
0
LINE
5
25F
100
AcDbEntity
8
0
6
ByLayer
62
256
370
-1
100
AcDbLine
10
47.4264068712
20
-102.45941546
11
47.4264068712
21
-106.823376491
0
CIRCLE
5
260
100
AcDbEntity
8
0
6
ByLayer
62
256
370
-1
100
AcDbCircle
10
42.4264068712
20
-106.066017178
40
2
0
LINE
5
261
100
AcDbEntity
8
0
6
ByLayer
62
256
370
-1
100
AcDbLine
10
-33.3198051534
20
-24.8198051534
11
-30.3198051534
21
-24.8198051534
0
CIRCLE
5
262
100
AcDbEntity
8
0
6
ByLayer
62
256
370
-1
100
AcDbCircle
10
-31.8198051534
20
-31.8198051534
40
2
0
ARC
5
263
100
AcDbEntity
8
0
6
ByLayer
62
256
370
-1
100
AcDbCircle
10
-31.0624458405
20
-40.2340187158
40
3.41421356239
100
AcDbArc
50
45.0000000002
51
90
0
LINE
5
264
100
AcDbEntity
8
0
6
ByLayer
62
256
370
-1
100
AcDbLine
10
-30.3198051534
20
-24.8198051534
11
-30.3198051534
21
-25.8198051534
0
ARC
5
265
100
AcDbEntity
8
0
6
ByLayer
62
256
370
-1
100
AcDbCircle
10
-29.3198051534
20
-25.8198051534
40
1
100
AcDbArc
50
180
51
270
0
ARC
5
266
100
AcDbEntity
8
0
6
ByLayer
62
256
370
-1
100
AcDbCircle
10
-35.8198051534
20
-27.8198051534
40
1
100
AcDbArc
50
90
51
180
0
LINE
5
267
100
AcDbEntity
8
0
6
ByLayer
62
256
370
-1
100
AcDbLine
10
-34.3198051534
20
-26.8198051534
11
-35.8198051534
21
-26.8198051534
0
ARC
5
268
100
AcDbEntity
8
0
6
ByLayer
62
256
370
-1
100
AcDbCircle
10
-34.3198051534
20
-25.8198051534
40
1
100
AcDbArc
50
270
51
0
0
LINE
5
269
100
AcDbEntity
8
0
6
ByLayer
62
256
370
-1
100
AcDbLine
10
-33.3198051534
20
-24.8198051534
11
-33.3198051534
21
-25.819804915
0
ARC
5
26A
100
AcDbEntity
8
0
6
ByLayer
62
256
370
-1
100
AcDbCircle
10
-29.6274169979
20
-41.6690475583
40
3.41421356235
100
AcDbArc
50
0
51
45.0000000002
0
LINE
5
26B
100
AcDbEntity
8
0
6
ByLayer
62
256
370
-1
100
AcDbLine
10
-22.7132034356
20
-35.4264068712
11
-22.7132034356
21
-37.0538756461
0
ARC
5
26C
100
AcDbEntity
8
0
6
ByLayer
62
256
370
-1
100
AcDbCircle
10
-23.2825931924
20
-37.0538756461
40
0.569389756847
100
AcDbArc
50
220.86386677
51
360
0
LINE
5
26D
100
AcDbEntity
8
0
6
ByLayer
62
256
370
-1
100
AcDbLine
10
-28.6482322781
20
-37.8198051534
11
-27.2132034356
21
-39.2548339959
0
LINE
5
26E
100
AcDbEntity
8
0
6
ByLayer
62
256
370
-1
100
AcDbLine
10
-26.2132034356
20
-41.6690475583
11
-26.2132034356
21
-46.033008589
0
ARC
5
26F
100
AcDbEntity
8
0
6
ByLayer
62
256
370
-1
100
AcDbCircle
10
-28.2132034356
20
-46.033008589
40
2
100
AcDbArc
50
270
51
0
0
LINE
5
270
100
AcDbEntity
8
0
6
ByLayer
62
256
370
-1
100
AcDbLine
10
-24.8198051534
20
-47.4264068712
11
-20.4558441227
21
-47.4264068712
0
ARC
5
271
100
AcDbEntity
8
0
6
ByLayer
62
256
370
-1
100
AcDbCircle
10
-24.8198051534
20
-49.4264068712
40
2
100
AcDbArc
50
90
51
180
0
LINE
5
272
100
AcDbEntity
8
0
6
ByLayer
62
256
370
-1
100
AcDbLine
10
-28.2132034356
20
-26.8198051534
11
-29.3198051534
21
-26.8198051534
0
LINE
5
273
100
AcDbEntity
8
0
6
ByLayer
62
256
370
-1
100
AcDbLine
10
-26.8198051534
20
-28.2132034356
11
-26.8198051534
21
-32.5771644663
0
ARC
5
274
100
AcDbEntity
8
0
6
ByLayer
62
256
370
-1
100
AcDbCircle
10
-23.0292066237
20
-32.5771644663
40
3.79059852974
100
AcDbArc
50
180
51
220.86386677
0
LINE
5
275
100
AcDbEntity
8
0
6
ByLayer
62
256
370
-1
100
AcDbLine
10
-25.8959082721
20
-35.0572166577
11
-23.7132034356
21
-37.4264068712
0
LINE
5
276
100
AcDbEntity
8
0
6
ByLayer
62
256
370
-1
100
AcDbLine
10
37.4264068712
20
-105.308657865
11
37.4264068712
21
-110.066017178
0
ARC
5
277
100
AcDbEntity
8
0
6
ByLayer
62
256
370
-1
100
AcDbCircle
10
35.4264068712
20
-109.672618896
40
2
100
AcDbArc
50
270
51
0
0
LINE
5
278
100
AcDbEntity
8
0
6
ByLayer
62
256
370
-1
100
AcDbLine
10
38.8198051534
20
-111.066017178
11
43.1837661841
21
-111.066017178
0
ARC
5
279
100
AcDbEntity
8
0
6
ByLayer
62
256
370
-1
100
AcDbCircle
10
38.8198051534
20
-113.066017178
40
2
100
AcDbArc
50
90
51
180
0
ARC
5
27A
100
AcDbEntity
8
0
6
ByLayer
62
256
370
-1
100
AcDbCircle
10
-38.8198051534
20
-35.4264068712
40
2
100
AcDbArc
50
270
51
0
0
LINE
5
27B
100
AcDbEntity
8
0
6
ByLayer
62
256
370
-1
100
AcDbLine
10
-36.8198051534
20
-27.8198051534
11
-36.8198051534
21
-35.4264068712
0
LINE
5
27C
100
AcDbEntity
8
0
6
ByLayer
62
256
370
-1
100
AcDbLine
10
-35.4264068712
20
-36.8198051534
11
-31.0624458405
21
-36.8198051534
0
ARC
5
27D
100
AcDbEntity
8
0
6
ByLayer
62
256
370
-1
100
AcDbCircle
10
-35.4264068712
20
-38.8198051534
40
2
100
AcDbArc
50
90
51
180
0
LINE
5
27E
100
AcDbEntity
8
0
6
ByLayer
62
256
370
-1
100
AcDbLine
10
-33.3198051534
20
-46.033008589
11
-30.3198051534
21
-46.033008589
0
CIRCLE
5
27F
100
AcDbEntity
8
0
6
ByLayer
62
256
370
-1
100
AcDbCircle
10
-31.8198051534
20
-53.033008589
40
2
0
ARC
5
280
100
AcDbEntity
8
0
6
ByLayer
62
256
370
-1
100
AcDbCircle
10
-23.405591591
20
-53.7903679019
40
3.41421356237
100
AcDbArc
50
180
51
225
0
ARC
5
281
100
AcDbEntity
8
0
6
ByLayer
62
256
370
-1
100
AcDbCircle
10
-31.0624458405
20
-61.4472221514
40
3.41421356239
100
AcDbArc
50
45.0000000002
51
90
0
LINE
5
282
100
AcDbEntity
8
0
6
ByLayer
62
256
370
-1
100
AcDbLine
10
-30.3198051534
20
-46.033008589
11
-30.3198051534
21
-47.033008589
0
ARC
5
283
100
AcDbEntity
8
0
6
ByLayer
62
256
370
-1
100
AcDbCircle
10
-29.3198051534
20
-47.033008589
40
1
100
AcDbArc
50
180
51
270
0
LINE
5
284
100
AcDbEntity
8
0
6
ByLayer
62
256
370
-1
100
AcDbLine
10
-22.7132034356
20
-56.6396103068
11
-19.7132034356
21
-56.6396103068
0
ARC
5
285
100
AcDbEntity
8
0
6
ByLayer
62
256
370
-1
100
AcDbCircle
10
-12.7989898732
20
-64.3969696197
40
3.41421356237
100
AcDbArc
50
180
51
225
0
ARC
5
286
100
AcDbEntity
8
0
6
ByLayer
62
256
370
-1
100
AcDbCircle
10
-20.4558441227
20
-72.0538238692
40
3.41421356239
100
AcDbArc
50
45.0000000002
51
90
0
LINE
5
287
100
AcDbEntity
8
0
6
ByLayer
62
256
370
-1
100
AcDbLine
10
-19.7132034356
20
-56.6396103068
11
-19.7132034356
21
-57.6396103068
0
ARC
5
288
100
AcDbEntity
8
0
6
ByLayer
62
256
370
-1
100
AcDbCircle
10
-18.7132034356
20
-57.6396103068
40
1
100
AcDbArc
50
180
51
270
0
ARC
5
289
100
AcDbEntity
8
0
6
ByLayer
62
256
370
-1
100
AcDbCircle
10
-29.6274169979
20
-62.8822509939
40
3.41421356235
100
AcDbArc
50
0
51
45.0000000002
0
LINE
5
28A
100
AcDbEntity
8
0
6
ByLayer
62
256
370
-1
100
AcDbLine
10
-22.7132034356
20
-56.6396103068
11
-22.7132034356
21
-58.2670790817
0
ARC
5
28B
100
AcDbEntity
8
0
6
ByLayer
62
256
370
-1
100
AcDbCircle
10
-23.2825931924
20
-58.2670790817
40
0.569389756847
100
AcDbArc
50
220.86386677
51
360
0
CIRCLE
5
28C
100
AcDbEntity
8
0
6
ByLayer
62
256
370
-1
100
AcDbCircle
10
-21.2132034356
20
-63.6396103068
40
2
0
LINE
5
28D
100
AcDbEntity
8
0
6
ByLayer
62
256
370
-1
100
AcDbLine
10
-12.1066017178
20
-67.2462120246
11
-9.1066017178
21
-67.2462120246
0
ARC
5
28E
100
AcDbEntity
8
0
6
ByLayer
62
256
370
-1
100
AcDbCircle
10
-9.84924240493
20
-82.660425587
40
3.41421356239
100
AcDbArc
50
45.0000000002
51
90
0
LINE
5
28F
100
AcDbEntity
8
0
6
ByLayer
62
256
370
-1
100
AcDbLine
10
-9.1066017178
20
-67.2462120246
11
-9.1066017178
21
-68.2462120246
0
ARC
5
290
100
AcDbEntity
8
0
6
ByLayer
62
256
370
-1
100
AcDbCircle
10
-8.1066017178
20
-68.2462120246
40
1
100
AcDbArc
50
180
51
270
0
ARC
5
291
100
AcDbEntity
8
0
6
ByLayer
62
256
370
-1
100
AcDbCircle
10
-19.0208152801
20
-73.4888527117
40
3.41421356235
100
AcDbArc
50
0
51
45.0000000002
0
LINE
5
292
100
AcDbEntity
8
0
6
ByLayer
62
256
370
-1
100
AcDbLine
10
-12.1066017178
20
-67.2462120246
11
-12.1066017178
21
-68.8736807995
0
ARC
5
293
100
AcDbEntity
8
0
6
ByLayer
62
256
370
-1
100
AcDbCircle
10
-12.6759914746
20
-68.8736807995
40
0.569389756847
100
AcDbArc
50
220.86386677
51
360
0
CIRCLE
5
294
100
AcDbEntity
8
0
6
ByLayer
62
256
370
-1
100
AcDbCircle
10
-10.6066017178
20
-74.2462120246
40
2
0
ARC
5
295
100
AcDbEntity
8
0
6
ByLayer
62
256
370
-1
100
AcDbCircle
10
0.757359312871
20
-93.2670273048
40
3.41421356239
100
AcDbArc
50
45.0000000002
51
90
0
ARC
5
296
100
AcDbEntity
8
0
6
ByLayer
62
256
370
-1
100
AcDbCircle
10
-8.41421356235
20
-84.0954544295
40
3.41421356235
100
AcDbArc
50
0
51
45.0000000002
0
CIRCLE
5
297
100
AcDbEntity
8
0
6
ByLayer
62
256
370
-1
100
AcDbCircle
10
-4.61852778244e-14
20
-84.8528137424
40
2
0
ARC
5
298
100
AcDbEntity
8
0
6
ByLayer
62
256
370
-1
100
AcDbCircle
10
11.3639610307
20
-103.873629023
40
3.41421356239
100
AcDbArc
50
45.0000000002
51
90
0
ARC
5
299
100
AcDbEntity
8
0
6
ByLayer
62
256
370
-1
100
AcDbCircle
10
2.19238815545
20
-94.7020561473
40
3.41421356235
100
AcDbArc
50
0
51
45.0000000002
0
CIRCLE
5
29A
100
AcDbEntity
8
0
6
ByLayer
62
256
370
-1
100
AcDbCircle
10
10.6066017178
20
-95.4594154602
40
2
0
ARC
5
29B
100
AcDbEntity
8
0
6
ByLayer
62
256
370
-1
100
AcDbCircle
10
12.7989898732
20
-105.308657865
40
3.41421356235
100
AcDbArc
50
0
51
45.0000000002
0
CIRCLE
5
29C
100
AcDbEntity
8
0
6
ByLayer
62
256
370
-1
100
AcDbCircle
10
21.2132034356
20
-106.066017178
40
2
0
LINE
5
29D
100
AcDbEntity
8
0
6
ByLayer
62
256
370
-1
100
AcDbLine
10
-25.8198051534
20
-56.2045814642
11
-23.7132034356
21
-58.6396103068
0
LINE
5
29E
100
AcDbEntity
8
0
6
ByLayer
62
256
370
-1
100
AcDbLine
10
-28.6482322781
20
-59.033008589
11
-27.2132034356
21
-60.4680374315
0
LINE
5
29F
100
AcDbEntity
8
0
6
ByLayer
62
256
370
-1
100
AcDbLine
10
-15.2132034356
20
-66.811183182
11
-13.1066017178
21
-69.2462120246
0
LINE
5
2A0
100
AcDbEntity
8
0
6
ByLayer
62
256
370
-1
100
AcDbLine
10
-18.0416305603
20
-69.6396103068
11
-16.6066017178
21
-71.0746391493
0
LINE
5
2A1
100
AcDbEntity
8
0
6
ByLayer
62
256
370
-1
100
AcDbLine
10
-7.43502884255
20
-80.2462120246
11
-6
21
-81.6812408671
0
LINE
5
2A2
100
AcDbEntity
8
0
6
ByLayer
62
256
370
-1
100
AcDbLine
10
3.17157287525
20
-90.8528137424
11
4.6066017178
21
-92.2878425849
0
LINE
5
2A3
100
AcDbEntity
8
0
6
ByLayer
62
256
370
-1
100
AcDbLine
10
13.778174593
20
-101.45941546
11
15.2132034356
21
-102.894444303
0
LINE
5
2A4
100
AcDbEntity
8
0
6
ByLayer
62
256
370
-1
100
AcDbLine
10
-17.6066017178
20
-58.6396103068
11
-18.7132034356
21
-58.6396103068
0
LINE
5
2A5
100
AcDbEntity
8
0
6
ByLayer
62
256
370
-1
100
AcDbLine
10
-16.2132034356
20
-60.033008589
11
-16.2132034356
21
-64.3969696197
0
LINE
5
2A6
100
AcDbEntity
8
0
6
ByLayer
62
256
370
-1
100
AcDbLine
10
-7
20
-69.2462120246
11
-8.1066017178
21
-69.2462120246
0
ARC
5
2A7
100
AcDbEntity
8
0
6
ByLayer
62
256
370
-1
100
AcDbCircle
10
-2.19238815543
20
-75.0035713375
40
3.41421356237
100
AcDbArc
50
180
51
225
0
LINE
5
2A8
100
AcDbEntity
8
0
6
ByLayer
62
256
370
-1
100
AcDbLine
10
-1.5
20
-77.8528137424
11
1.5
21
-77.8528137424
0
LINE
5
2A9
100
AcDbEntity
8
0
6
ByLayer
62
256
370
-1
100
AcDbLine
10
1.5
20
-77.8528137424
11
1.5
21
-78.8528137424
0
ARC
5
2AA
100
AcDbEntity
8
0
6
ByLayer
62
256
370
-1
100
AcDbCircle
10
2.5
20
-78.8528137424
40
1
100
AcDbArc
50
180
51
270
0
LINE
5
2AB
100
AcDbEntity
8
0
6
ByLayer
62
256
370
-1
100
AcDbLine
10
-1.5
20
-77.8528137424
11
-1.5
21
-79.4802825173
0
ARC
5
2AC
100
AcDbEntity
8
0
6
ByLayer
62
256
370
-1
100
AcDbCircle
10
-2.06938975685
20
-79.4802825173
40
0.569389756847
100
AcDbArc
50
220.86386677
51
360
0
LINE
5
2AD
100
AcDbEntity
8
0
6
ByLayer
62
256
370
-1
100
AcDbLine
10
-4.6066017178
20
-77.4177848998
11
-2.5
21
-79.8528137424
0
LINE
5
2AE
100
AcDbEntity
8
0
6
ByLayer
62
256
370
-1
100
AcDbLine
10
-5.6066017178
20
-70.6396103068
11
-5.6066017178
21
-75.0035713375
0
LINE
5
2AF
100
AcDbEntity
8
0
6
ByLayer
62
256
370
-1
100
AcDbLine
10
3.6066017178
20
-79.8528137424
11
2.5
21
-79.8528137424
0
ARC
5
2B0
100
AcDbEntity
8
0
6
ByLayer
62
256
370
-1
100
AcDbCircle
10
8.41421356237
20
-85.6101730553
40
3.41421356237
100
AcDbArc
50
180
51
225
0
LINE
5
2B1
100
AcDbEntity
8
0
6
ByLayer
62
256
370
-1
100
AcDbLine
10
9.1066017178
20
-88.4594154602
11
12.1066017178
21
-88.4594154602
0
LINE
5
2B2
100
AcDbEntity
8
0
6
ByLayer
62
256
370
-1
100
AcDbLine
10
12.1066017178
20
-88.4594154602
11
12.1066017178
21
-89.4594154602
0
ARC
5
2B3
100
AcDbEntity
8
0
6
ByLayer
62
256
370
-1
100
AcDbCircle
10
13.1066017178
20
-89.4594154602
40
1
100
AcDbArc
50
180
51
270
0
LINE
5
2B4
100
AcDbEntity
8
0
6
ByLayer
62
256
370
-1
100
AcDbLine
10
9.1066017178
20
-88.4594154602
11
9.1066017178
21
-90.0868842351
0
ARC
5
2B5
100
AcDbEntity
8
0
6
ByLayer
62
256
370
-1
100
AcDbCircle
10
8.53721196095
20
-90.0868842351
40
0.569389756847
100
AcDbArc
50
220.86386677
51
360
0
LINE
5
2B6
100
AcDbEntity
8
0
6
ByLayer
62
256
370
-1
100
AcDbLine
10
6
20
-88.0243866176
11
8.1066017178
21
-90.4594154602
0
LINE
5
2B7
100
AcDbEntity
8
0
6
ByLayer
62
256
370
-1
100
AcDbLine
10
5
20
-81.2462120246
11
5
21
-85.6101730553
0
ARC
5
2B8
100
AcDbEntity
8
0
6
ByLayer
62
256
370
-1
100
AcDbCircle
10
19.0208152802
20
-96.2167747731
40
3.41421356237
100
AcDbArc
50
180
51
225
0
LINE
5
2B9
100
AcDbEntity
8
0
6
ByLayer
62
256
370
-1
100
AcDbLine
10
19.7132034356
20
-99.066017178
11
22.7132034356
21
-99.066017178
0
LINE
5
2BA
100
AcDbEntity
8
0
6
ByLayer
62
256
370
-1
100
AcDbLine
10
22.7132034356
20
-99.066017178
11
22.7132034356
21
-100.066017178
0
ARC
5
2BB
100
AcDbEntity
8
0
6
ByLayer
62
256
370
-1
100
AcDbCircle
10
23.7132034356
20
-100.066017178
40
1
100
AcDbArc
50
180
51
270
0
LINE
5
2BC
100
AcDbEntity
8
0
6
ByLayer
62
256
370
-1
100
AcDbLine
10
19.7132034356
20
-99.066017178
11
19.7132034356
21
-100.693485953
0
ARC
5
2BD
100
AcDbEntity
8
0
6
ByLayer
62
256
370
-1
100
AcDbCircle
10
19.1438136787
20
-100.693485953
40
0.569389756847
100
AcDbArc
50
220.86386677
51
360
0
LINE
5
2BE
100
AcDbEntity
8
0
6
ByLayer
62
256
370
-1
100
AcDbLine
10
16.6066017178
20
-98.6309883354
11
18.7132034356
21
-101.066017178
0
LINE
5
2BF
100
AcDbEntity
8
0
6
ByLayer
62
256
370
-1
100
AcDbLine
10
15.6066017178
20
-91.8528137424
11
15.6066017178
21
-96.2167747731
0
LINE
5
2C0
100
AcDbEntity
8
0
6
ByLayer
62
256
370
-1
100
AcDbLine
10
24.8198051534
20
-101.066017178
11
23.7132034356
21
-101.066017178
0
LINE
5
2C1
100
AcDbEntity
8
0
6
ByLayer
62
256
370
-1
100
AcDbLine
10
13.1066017178
20
-90.4594154602
11
14.2132034356
21
-90.4594154602
0
LINE
5
2C2
100
AcDbEntity
8
0
6
ByLayer
62
256
370
-1
100
AcDbLine
10
-26.8198051534
20
-49.4264068712
11
-26.8198051534
21
-53.7903679019
0
LINE
5
2C3
100
AcDbEntity
8
0
6
ByLayer
62
256
370
-1
100
AcDbLine
10
-28.2132034356
20
-48.033008589
11
-29.3198051534
21
-48.033008589
0
LINE
5
2C4
100
AcDbEntity
8
0
6
ByLayer
62
256
370
-1
100
AcDbLine
10
-26.2132034356
20
-62.8822509939
11
-26.2132034356
21
-67.2462120246
0
ARC
5
2C5
100
AcDbEntity
8
0
6
ByLayer
62
256
370
-1
100
AcDbCircle
10
-28.2132034356
20
-67.2462120246
40
2
100
AcDbArc
50
270
51
0
0
LINE
5
2C6
100
AcDbEntity
8
0
6
ByLayer
62
256
370
-1
100
AcDbLine
10
-24.8198051534
20
-68.6396103068
11
-20.4558441227
21
-68.6396103068
0
ARC
5
2C7
100
AcDbEntity
8
0
6
ByLayer
62
256
370
-1
100
AcDbCircle
10
-24.8198051534
20
-70.6396103068
40
2
100
AcDbArc
50
90
51
180
0
LINE
5
2C8
100
AcDbEntity
8
0
6
ByLayer
62
256
370
-1
100
AcDbLine
10
-15.6066017178
20
-73.4888527117
11
-15.6066017178
21
-77.8528137424
0
ARC
5
2C9
100
AcDbEntity
8
0
6
ByLayer
62
256
370
-1
100
AcDbCircle
10
-17.6066017178
20
-77.8528137424
40
2
100
AcDbArc
50
270
51
0
0
LINE
5
2CA
100
AcDbEntity
8
0
6
ByLayer
62
256
370
-1
100
AcDbLine
10
-14.2132034356
20
-79.2462120246
11
-9.84924240493
21
-79.2462120246
0
ARC
5
2CB
100
AcDbEntity
8
0
6
ByLayer
62
256
370
-1
100
AcDbCircle
10
-14.2132034356
20
-81.2462120246
40
2
100
AcDbArc
50
90
51
180
0
LINE
5
2CC
100
AcDbEntity
8
0
6
ByLayer
62
256
370
-1
100
AcDbLine
10
-5
20
-84.0954544295
11
-5
21
-88.4594154602
0
ARC
5
2CD
100
AcDbEntity
8
0
6
ByLayer
62
256
370
-1
100
AcDbCircle
10
-7
20
-88.4594154602
40
2
100
AcDbArc
50
270
51
0
0
LINE
5
2CE
100
AcDbEntity
8
0
6
ByLayer
62
256
370
-1
100
AcDbLine
10
-3.6066017178
20
-89.8528137424
11
0.757359312871
21
-89.8528137424
0
ARC
5
2CF
100
AcDbEntity
8
0
6
ByLayer
62
256
370
-1
100
AcDbCircle
10
-3.6066017178
20
-91.8528137424
40
2
100
AcDbArc
50
90
51
180
0
LINE
5
2D0
100
AcDbEntity
8
0
6
ByLayer
62
256
370
-1
100
AcDbLine
10
5.6066017178
20
-94.7020561473
11
5.6066017178
21
-99.066017178
0
ARC
5
2D1
100
AcDbEntity
8
0
6
ByLayer
62
256
370
-1
100
AcDbCircle
10
3.6066017178
20
-99.066017178
40
2
100
AcDbArc
50
270
51
0
0
LINE
5
2D2
100
AcDbEntity
8
0
6
ByLayer
62
256
370
-1
100
AcDbLine
10
7
20
-100.45941546
11
11.3639610307
21
-100.45941546
0
ARC
5
2D3
100
AcDbEntity
8
0
6
ByLayer
62
256
370
-1
100
AcDbCircle
10
7
20
-102.45941546
40
2
100
AcDbArc
50
90
51
180
0
ARC
5
2D4
100
AcDbEntity
8
0
6
ByLayer
62
256
370
-1
100
AcDbCircle
10
40.2340187158
20
-117.429978209
40
3.41421356237
100
AcDbArc
50
180
51
225
0
ARC
5
2D5
100
AcDbEntity
8
0
6
ByLayer
62
256
370
-1
100
AcDbCircle
10
32.5771644663
20
-125.086832458
40
3.41421356239
100
AcDbArc
50
45.0000000002
51
90
0
LINE
5
2D6
100
AcDbEntity
8
0
6
ByLayer
62
256
370
-1
100
AcDbLine
10
37.8198051534
20
-119.844191771
11
34.9913780286
21
-122.672618896
0
ARC
5
2D7
100
AcDbEntity
8
0
6
ByLayer
62
256
370
-1
100
AcDbCircle
10
21.9705627485
20
-114.48023074
40
3.41421356239
100
AcDbArc
50
45.0000000002
51
90
0
ARC
5
2D8
100
AcDbEntity
8
0
6
ByLayer
62
256
370
-1
100
AcDbCircle
10
23.405591591
20
-115.915259583
40
3.41421356235
100
AcDbArc
50
0
51
45.0000000002
0
LINE
5
2D9
100
AcDbEntity
8
0
6
ByLayer
62
256
370
-1
100
AcDbLine
10
24.3847763108
20
-112.066017178
11
25.8198051534
21
-113.501046021
0
LINE
5
2DA
100
AcDbEntity
8
0
6
ByLayer
62
256
370
-1
100
AcDbLine
10
16.2132034356
20
-105.308657865
11
16.2132034356
21
-109.672618896
0
ARC
5
2DB
100
AcDbEntity
8
0
6
ByLayer
62
256
370
-1
100
AcDbCircle
10
14.2132034356
20
-109.672618896
40
2
100
AcDbArc
50
270
51
0
0
LINE
5
2DC
100
AcDbEntity
8
0
6
ByLayer
62
256
370
-1
100
AcDbLine
10
17.6066017178
20
-111.066017178
11
21.9705627485
21
-111.066017178
0
ARC
5
2DD
100
AcDbEntity
8
0
6
ByLayer
62
256
370
-1
100
AcDbCircle
10
17.6066017178
20
-113.066017178
40
2
100
AcDbArc
50
90
51
180
0
ARC
5
2DE
100
AcDbEntity
8
0
6
ByLayer
62
256
370
-1
100
AcDbCircle
10
29.627416998
20
-106.823376491
40
3.41421356237
100
AcDbArc
50
180
51
225
0
LINE
5
2DF
100
AcDbEntity
8
0
6
ByLayer
62
256
370
-1
100
AcDbLine
10
30.3198051534
20
-109.672618896
11
33.3198051534
21
-109.672618896
0
LINE
5
2E0
100
AcDbEntity
8
0
6
ByLayer
62
256
370
-1
100
AcDbLine
10
33.3198051534
20
-109.672618896
11
33.3198051534
21
-110.672618896
0
ARC
5
2E1
100
AcDbEntity
8
0
6
ByLayer
62
256
370
-1
100
AcDbCircle
10
34.3198051534
20
-110.672618896
40
1
100
AcDbArc
50
180
51
270
0
LINE
5
2E2
100
AcDbEntity
8
0
6
ByLayer
62
256
370
-1
100
AcDbLine
10
30.3198051534
20
-109.672618896
11
30.3198051534
21
-111.300087671
0
ARC
5
2E3
100
AcDbEntity
8
0
6
ByLayer
62
256
370
-1
100
AcDbCircle
10
29.7504153965
20
-111.300087671
40
0.569389756847
100
AcDbArc
50
220.86386677
51
360
0
LINE
5
2E4
100
AcDbEntity
8
0
6
ByLayer
62
256
370
-1
100
AcDbLine
10
27.2132034356
20
-109.237590053
11
29.3198051534
21
-111.672618896
0
LINE
5
2E5
100
AcDbEntity
8
0
6
ByLayer
62
256
370
-1
100
AcDbLine
10
26.2132034356
20
-102.45941546
11
26.2132034356
21
-106.823376491
0
LINE
5
2E6
100
AcDbEntity
8
0
6
ByLayer
62
256
370
-1
100
AcDbLine
10
35.4264068712
20
-111.672618896
11
34.3198051534
21
-111.672618896
0
LINE
5
2E7
100
AcDbEntity
8
0
6
ByLayer
62
256
370
-1
100
AcDbLine
10
36.8198051534
20
-113.066017178
11
36.8198051534
21
-117.429978209
0
CIRCLE
5
2E8
100
AcDbEntity
8
0
6
ByLayer
62
256
370
-1
100
AcDbCircle
10
31.8198051534
20
-116.672618896
40
2
0
LINE
5
2E9
100
AcDbEntity
8
0
6
ByLayer
62
256
370
-1
100
AcDbLine
10
-43.9264068712
20
-35.4264068712
11
-40.9264068712
21
-35.4264068712
0
CIRCLE
5
2EA
100
AcDbEntity
8
0
6
ByLayer
62
256
370
-1
100
AcDbCircle
10
-42.4264068712
20
-42.4264068712
40
2
0
ARC
5
2EB
100
AcDbEntity
8
0
6
ByLayer
62
256
370
-1
100
AcDbCircle
10
-41.6690475583
20
-50.8406204336
40
3.41421356239
100
AcDbArc
50
45.0000000002
51
90
0
LINE
5
2EC
100
AcDbEntity
8
0
6
ByLayer
62
256
370
-1
100
AcDbLine
10
-40.9264068712
20
-35.4264068712
11
-40.9264068712
21
-36.4264068712
0
ARC
5
2ED
100
AcDbEntity
8
0
6
ByLayer
62
256
370
-1
100
AcDbCircle
10
-39.9264068712
20
-36.4264068712
40
1
100
AcDbArc
50
180
51
270
0
ARC
5
2EE
100
AcDbEntity
8
0
6
ByLayer
62
256
370
-1
100
AcDbCircle
10
-46.4264068712
20
-38.4264068712
40
1
100
AcDbArc
50
90
51
180
0
LINE
5
2EF
100
AcDbEntity
8
0
6
ByLayer
62
256
370
-1
100
AcDbLine
10
-44.9264068712
20
-37.4264068712
11
-46.4264068712
21
-37.4264068712
0
ARC
5
2F0
100
AcDbEntity
8
0
6
ByLayer
62
256
370
-1
100
AcDbCircle
10
-44.9264068712
20
-36.4264068712
40
1
100
AcDbArc
50
270
51
0
0
LINE
5
2F1
100
AcDbEntity
8
0
6
ByLayer
62
256
370
-1
100
AcDbLine
10
-43.9264068712
20
-35.4264068712
11
-43.9264068712
21
-36.4264066328
0
ARC
5
2F2
100
AcDbEntity
8
0
6
ByLayer
62
256
370
-1
100
AcDbCircle
10
-40.2340187157
20
-52.2756492761
40
3.41421356235
100
AcDbArc
50
0
51
45.0000000002
0
LINE
5
2F3
100
AcDbEntity
8
0
6
ByLayer
62
256
370
-1
100
AcDbLine
10
-33.3198051534
20
-46.033008589
11
-33.3198051534
21
-47.6604773639
0
ARC
5
2F4
100
AcDbEntity
8
0
6
ByLayer
62
256
370
-1
100
AcDbCircle
10
-33.8891949102
20
-47.6604773639
40
0.569389756847
100
AcDbArc
50
220.86386677
51
360
0
LINE
5
2F5
100
AcDbEntity
8
0
6
ByLayer
62
256
370
-1
100
AcDbLine
10
-39.2548339959
20
-48.4264068712
11
-37.8198051534
21
-49.8614357137
0
LINE
5
2F6
100
AcDbEntity
8
0
6
ByLayer
62
256
370
-1
100
AcDbLine
10
-36.8198051534
20
-52.2756492761
11
-36.8198051534
21
-56.6396103068
0
ARC
5
2F7
100
AcDbEntity
8
0
6
ByLayer
62
256
370
-1
100
AcDbCircle
10
-38.8198051534
20
-56.6396103068
40
2
100
AcDbArc
50
270
51
0
0
LINE
5
2F8
100
AcDbEntity
8
0
6
ByLayer
62
256
370
-1
100
AcDbLine
10
-35.4264068712
20
-58.033008589
11
-31.0624458405
21
-58.033008589
0
ARC
5
2F9
100
AcDbEntity
8
0
6
ByLayer
62
256
370
-1
100
AcDbCircle
10
-35.4264068712
20
-60.033008589
40
2
100
AcDbArc
50
90
51
180
0
LINE
5
2FA
100
AcDbEntity
8
0
6
ByLayer
62
256
370
-1
100
AcDbLine
10
-38.8198051534
20
-37.4264068712
11
-39.9264068712
21
-37.4264068712
0
LINE
5
2FB
100
AcDbEntity
8
0
6
ByLayer
62
256
370
-1
100
AcDbLine
10
-37.4264068712
20
-38.8198051534
11
-37.4264068712
21
-43.1837661841
0
ARC
5
2FC
100
AcDbEntity
8
0
6
ByLayer
62
256
370
-1
100
AcDbCircle
10
-33.6358083415
20
-43.1837661841
40
3.79059852974
100
AcDbArc
50
180
51
220.86386677
0
LINE
5
2FD
100
AcDbEntity
8
0
6
ByLayer
62
256
370
-1
100
AcDbLine
10
-36.5025099899
20
-45.6638183755
11
-34.3198051534
21
-48.033008589
0
LINE
5
2FE
100
AcDbEntity
8
0
6
ByLayer
62
256
370
-1
100
AcDbLine
10
26.8198051534
20
-115.915259583
11
26.8198051534
21
-120.672618896
0
ARC
5
2FF
100
AcDbEntity
8
0
6
ByLayer
62
256
370
-1
100
AcDbCircle
10
24.8198051534
20
-120.279220614
40
2
100
AcDbArc
50
270
51
0
0
LINE
5
300
100
AcDbEntity
8
0
6
ByLayer
62
256
370
-1
100
AcDbLine
10
28.2132034356
20
-121.672618896
11
32.5771644663
21
-121.672618896
0
ARC
5
301
100
AcDbEntity
8
0
6
ByLayer
62
256
370
-1
100
AcDbCircle
10
28.2132034356
20
-123.672618896
40
2
100
AcDbArc
50
90
51
180
0
ARC
5
302
100
AcDbEntity
8
0
6
ByLayer
62
256
370
-1
100
AcDbCircle
10
-49.4264068712
20
-46.033008589
40
2
100
AcDbArc
50
270
51
0
0
LINE
5
303
100
AcDbEntity
8
0
6
ByLayer
62
256
370
-1
100
AcDbLine
10
-47.4264068712
20
-38.4264068712
11
-47.4264068712
21
-46.033008589
0
LINE
5
304
100
AcDbEntity
8
0
6
ByLayer
62
256
370
-1
100
AcDbLine
10
-46.033008589
20
-47.4264068712
11
-41.6690475583
21
-47.4264068712
0
ARC
5
305
100
AcDbEntity
8
0
6
ByLayer
62
256
370
-1
100
AcDbCircle
10
-46.033008589
20
-49.4264068712
40
2
100
AcDbArc
50
90
51
180
0
LINE
5
306
100
AcDbEntity
8
0
6
ByLayer
62
256
370
-1
100
AcDbLine
10
-43.9264068712
20
-56.6396103068
11
-40.9264068712
21
-56.6396103068
0
CIRCLE
5
307
100
AcDbEntity
8
0
6
ByLayer
62
256
370
-1
100
AcDbCircle
10
-42.4264068712
20
-63.6396103068
40
2
0
ARC
5
308
100
AcDbEntity
8
0
6
ByLayer
62
256
370
-1
100
AcDbCircle
10
-34.0121933088
20
-64.3969696197
40
3.41421356237
100
AcDbArc
50
180
51
225
0
ARC
5
309
100
AcDbEntity
8
0
6
ByLayer
62
256
370
-1
100
AcDbCircle
10
-41.6690475583
20
-72.0538238692
40
3.41421356239
100
AcDbArc
50
45.0000000002
51
90
0
LINE
5
30A
100
AcDbEntity
8
0
6
ByLayer
62
256
370
-1
100
AcDbLine
10
-40.9264068712
20
-56.6396103068
11
-40.9264068712
21
-57.6396103068
0
ARC
5
30B
100
AcDbEntity
8
0
6
ByLayer
62
256
370
-1
100
AcDbCircle
10
-39.9264068712
20
-57.6396103068
40
1
100
AcDbArc
50
180
51
270
0
LINE
5
30C
100
AcDbEntity
8
0
6
ByLayer
62
256
370
-1
100
AcDbLine
10
-33.3198051534
20
-67.2462120246
11
-30.3198051534
21
-67.2462120246
0
ARC
5
30D
100
AcDbEntity
8
0
6
ByLayer
62
256
370
-1
100
AcDbCircle
10
-23.405591591
20
-75.0035713375
40
3.41421356237
100
AcDbArc
50
180
51
225
0
ARC
5
30E
100
AcDbEntity
8
0
6
ByLayer
62
256
370
-1
100
AcDbCircle
10
-31.0624458405
20
-82.660425587
40
3.41421356239
100
AcDbArc
50
45.0000000002
51
90
0
LINE
5
30F
100
AcDbEntity
8
0
6
ByLayer
62
256
370
-1
100
AcDbLine
10
-30.3198051534
20
-67.2462120246
11
-30.3198051534
21
-68.2462120246
0
ARC
5
310
100
AcDbEntity
8
0
6
ByLayer
62
256
370
-1
100
AcDbCircle
10
-29.3198051534
20
-68.2462120246
40
1
100
AcDbArc
50
180
51
270
0
ARC
5
311
100
AcDbEntity
8
0
6
ByLayer
62
256
370
-1
100
AcDbCircle
10
-40.2340187157
20
-73.4888527117
40
3.41421356235
100
AcDbArc
50
0
51
45.0000000002
0
LINE
5
312
100
AcDbEntity
8
0
6
ByLayer
62
256
370
-1
100
AcDbLine
10
-33.3198051534
20
-67.2462120246
11
-33.3198051534
21
-68.8736807995
0
ARC
5
313
100
AcDbEntity
8
0
6
ByLayer
62
256
370
-1
100
AcDbCircle
10
-33.8891949102
20
-68.8736807995
40
0.569389756847
100
AcDbArc
50
220.86386677
51
360
0
CIRCLE
5
314
100
AcDbEntity
8
0
6
ByLayer
62
256
370
-1
100
AcDbCircle
10
-31.8198051534
20
-74.2462120246
40
2
0
LINE
5
315
100
AcDbEntity
8
0
6
ByLayer
62
256
370
-1
100
AcDbLine
10
-22.7132034356
20
-77.8528137424
11
-19.7132034356
21
-77.8528137424
0
ARC
5
316
100
AcDbEntity
8
0
6
ByLayer
62
256
370
-1
100
AcDbCircle
10
-20.4558441227
20
-93.2670273048
40
3.41421356239
100
AcDbArc
50
45.0000000002
51
90
0
LINE
5
317
100
AcDbEntity
8
0
6
ByLayer
62
256
370
-1
100
AcDbLine
10
-19.7132034356
20
-77.8528137424
11
-19.7132034356
21
-78.8528137424
0
ARC
5
318
100
AcDbEntity
8
0
6
ByLayer
62
256
370
-1
100
AcDbCircle
10
-18.7132034356
20
-78.8528137424
40
1
100
AcDbArc
50
180
51
270
0
ARC
5
319
100
AcDbEntity
8
0
6
ByLayer
62
256
370
-1
100
AcDbCircle
10
-29.6274169979
20
-84.0954544295
40
3.41421356235
100
AcDbArc
50
0
51
45.0000000002
0
LINE
5
31A
100
AcDbEntity
8
0
6
ByLayer
62
256
370
-1
100
AcDbLine
10
-22.7132034356
20
-77.8528137424
11
-22.7132034356
21
-79.4802825173
0
ARC
5
31B
100
AcDbEntity
8
0
6
ByLayer
62
256
370
-1
100
AcDbCircle
10
-23.2825931924
20
-79.4802825173
40
0.569389756847
100
AcDbArc
50
220.86386677
51
360
0
CIRCLE
5
31C
100
AcDbEntity
8
0
6
ByLayer
62
256
370
-1
100
AcDbCircle
10
-21.2132034356
20
-84.8528137424
40
2
0
ARC
5
31D
100
AcDbEntity
8
0
6
ByLayer
62
256
370
-1
100
AcDbCircle
10
-9.84924240493
20
-103.873629023
40
3.41421356239
100
AcDbArc
50
45.0000000002
51
90
0
ARC
5
31E
100
AcDbEntity
8
0
6
ByLayer
62
256
370
-1
100
AcDbCircle
10
-19.0208152801
20
-94.7020561473
40
3.41421356235
100
AcDbArc
50
0
51
45.0000000002
0
CIRCLE
5
31F
100
AcDbEntity
8
0
6
ByLayer
62
256
370
-1
100
AcDbCircle
10
-10.6066017178
20
-95.4594154602
40
2
0
ARC
5
320
100
AcDbEntity
8
0
6
ByLayer
62
256
370
-1
100
AcDbCircle
10
0.757359312871
20
-114.48023074
40
3.41421356239
100
AcDbArc
50
45.0000000002
51
90
0
ARC
5
321
100
AcDbEntity
8
0
6
ByLayer
62
256
370
-1
100
AcDbCircle
10
-8.41421356235
20
-105.308657865
40
3.41421356235
100
AcDbArc
50
0
51
45.0000000002
0
CIRCLE
5
322
100
AcDbEntity
8
0
6
ByLayer
62
256
370
-1
100
AcDbCircle
10
-6.75015598972e-14
20
-106.066017178
40
2
0
ARC
5
323
100
AcDbEntity
8
0
6
ByLayer
62
256
370
-1
100
AcDbCircle
10
2.19238815545
20
-115.915259583
40
3.41421356235
100
AcDbArc
50
0
51
45.0000000002
0
CIRCLE
5
324
100
AcDbEntity
8
0
6
ByLayer
62
256
370
-1
100
AcDbCircle
10
10.6066017178
20
-116.672618896
40
2
0
LINE
5
325
100
AcDbEntity
8
0
6
ByLayer
62
256
370
-1
100
AcDbLine
10
-36.4264068712
20
-66.811183182
11
-34.3198051534
21
-69.2462120246
0
LINE
5
326
100
AcDbEntity
8
0
6
ByLayer
62
256
370
-1
100
AcDbLine
10
-39.2548339959
20
-69.6396103068
11
-37.8198051534
21
-71.0746391493
0
LINE
5
327
100
AcDbEntity
8
0
6
ByLayer
62
256
370
-1
100
AcDbLine
10
-25.8198051534
20
-77.4177848998
11
-23.7132034356
21
-79.8528137424
0
LINE
5
328
100
AcDbEntity
8
0
6
ByLayer
62
256
370
-1
100
AcDbLine
10
-28.6482322781
20
-80.2462120246
11
-27.2132034356
21
-81.6812408671
0
LINE
5
329
100
AcDbEntity
8
0
6
ByLayer
62
256
370
-1
100
AcDbLine
10
-18.0416305603
20
-90.8528137424
11
-16.6066017178
21
-92.2878425849
0
LINE
5
32A
100
AcDbEntity
8
0
6
ByLayer
62
256
370
-1
100
AcDbLine
10
-7.43502884255
20
-101.45941546
11
-6
21
-102.894444303
0
LINE
5
32B
100
AcDbEntity
8
0
6
ByLayer
62
256
370
-1
100
AcDbLine
10
3.17157287525
20
-112.066017178
11
4.6066017178
21
-113.501046021
0
LINE
5
32C
100
AcDbEntity
8
0
6
ByLayer
62
256
370
-1
100
AcDbLine
10
-28.2132034356
20
-69.2462120246
11
-29.3198051534
21
-69.2462120246
0
LINE
5
32D
100
AcDbEntity
8
0
6
ByLayer
62
256
370
-1
100
AcDbLine
10
-26.8198051534
20
-70.6396103068
11
-26.8198051534
21
-75.0035713375
0
LINE
5
32E
100
AcDbEntity
8
0
6
ByLayer
62
256
370
-1
100
AcDbLine
10
-17.6066017178
20
-79.8528137424
11
-18.7132034356
21
-79.8528137424
0
ARC
5
32F
100
AcDbEntity
8
0
6
ByLayer
62
256
370
-1
100
AcDbCircle
10
-12.7989898732
20
-85.6101730553
40
3.41421356237
100
AcDbArc
50
180
51
225
0
LINE
5
330
100
AcDbEntity
8
0
6
ByLayer
62
256
370
-1
100
AcDbLine
10
-12.1066017178
20
-88.4594154602
11
-9.1066017178
21
-88.4594154602
0
LINE
5
331
100
AcDbEntity
8
0
6
ByLayer
62
256
370
-1
100
AcDbLine
10
-9.1066017178
20
-88.4594154602
11
-9.1066017178
21
-89.4594154602
0
ARC
5
332
100
AcDbEntity
8
0
6
ByLayer
62
256
370
-1
100
AcDbCircle
10
-8.1066017178
20
-89.4594154602
40
1
100
AcDbArc
50
180
51
270
0
LINE
5
333
100
AcDbEntity
8
0
6
ByLayer
62
256
370
-1
100
AcDbLine
10
-12.1066017178
20
-88.4594154602
11
-12.1066017178
21
-90.0868842351
0
ARC
5
334
100
AcDbEntity
8
0
6
ByLayer
62
256
370
-1
100
AcDbCircle
10
-12.6759914746
20
-90.0868842351
40
0.569389756847
100
AcDbArc
50
220.86386677
51
360
0
LINE
5
335
100
AcDbEntity
8
0
6
ByLayer
62
256
370
-1
100
AcDbLine
10
-15.2132034356
20
-88.0243866176
11
-13.1066017178
21
-90.4594154602
0
LINE
5
336
100
AcDbEntity
8
0
6
ByLayer
62
256
370
-1
100
AcDbLine
10
-16.2132034356
20
-81.2462120246
11
-16.2132034356
21
-85.6101730553
0
LINE
5
337
100
AcDbEntity
8
0
6
ByLayer
62
256
370
-1
100
AcDbLine
10
-7
20
-90.4594154602
11
-8.1066017178
21
-90.4594154602
0
ARC
5
338
100
AcDbEntity
8
0
6
ByLayer
62
256
370
-1
100
AcDbCircle
10
-2.19238815543
20
-96.2167747731
40
3.41421356237
100
AcDbArc
50
180
51
225
0
LINE
5
339
100
AcDbEntity
8
0
6
ByLayer
62
256
370
-1
100
AcDbLine
10
-1.5
20
-99.066017178
11
1.5
21
-99.066017178
0
LINE
5
33A
100
AcDbEntity
8
0
6
ByLayer
62
256
370
-1
100
AcDbLine
10
1.5
20
-99.066017178
11
1.5
21
-100.066017178
0
ARC
5
33B
100
AcDbEntity
8
0
6
ByLayer
62
256
370
-1
100
AcDbCircle
10
2.5
20
-100.066017178
40
1
100
AcDbArc
50
180
51
270
0
LINE
5
33C
100
AcDbEntity
8
0
6
ByLayer
62
256
370
-1
100
AcDbLine
10
-1.5
20
-99.066017178
11
-1.5
21
-100.693485953
0
ARC
5
33D
100
AcDbEntity
8
0
6
ByLayer
62
256
370
-1
100
AcDbCircle
10
-2.06938975685
20
-100.693485953
40
0.569389756847
100
AcDbArc
50
220.86386677
51
360
0
LINE
5
33E
100
AcDbEntity
8
0
6
ByLayer
62
256
370
-1
100
AcDbLine
10
-4.6066017178
20
-98.6309883354
11
-2.5
21
-101.066017178
0
LINE
5
33F
100
AcDbEntity
8
0
6
ByLayer
62
256
370
-1
100
AcDbLine
10
-5.6066017178
20
-91.8528137424
11
-5.6066017178
21
-96.2167747731
0
ARC
5
340
100
AcDbEntity
8
0
6
ByLayer
62
256
370
-1
100
AcDbCircle
10
8.41421356237
20
-106.823376491
40
3.41421356237
100
AcDbArc
50
180
51
225
0
LINE
5
341
100
AcDbEntity
8
0
6
ByLayer
62
256
370
-1
100
AcDbLine
10
9.1066017178
20
-109.672618896
11
12.1066017178
21
-109.672618896
0
LINE
5
342
100
AcDbEntity
8
0
6
ByLayer
62
256
370
-1
100
AcDbLine
10
12.1066017178
20
-109.672618896
11
12.1066017178
21
-110.672618896
0
ARC
5
343
100
AcDbEntity
8
0
6
ByLayer
62
256
370
-1
100
AcDbCircle
10
13.1066017178
20
-110.672618896
40
1
100
AcDbArc
50
180
51
270
0
LINE
5
344
100
AcDbEntity
8
0
6
ByLayer
62
256
370
-1
100
AcDbLine
10
9.1066017178
20
-109.672618896
11
9.1066017178
21
-111.300087671
0
ARC
5
345
100
AcDbEntity
8
0
6
ByLayer
62
256
370
-1
100
AcDbCircle
10
8.53721196095
20
-111.300087671
40
0.569389756847
100
AcDbArc
50
220.86386677
51
360
0
LINE
5
346
100
AcDbEntity
8
0
6
ByLayer
62
256
370
-1
100
AcDbLine
10
6
20
-109.237590053
11
8.1066017178
21
-111.672618896
0
LINE
5
347
100
AcDbEntity
8
0
6
ByLayer
62
256
370
-1
100
AcDbLine
10
5
20
-102.45941546
11
5
21
-106.823376491
0
LINE
5
348
100
AcDbEntity
8
0
6
ByLayer
62
256
370
-1
100
AcDbLine
10
14.2132034356
20
-111.672618896
11
13.1066017178
21
-111.672618896
0
LINE
5
349
100
AcDbEntity
8
0
6
ByLayer
62
256
370
-1
100
AcDbLine
10
2.5
20
-101.066017178
11
3.6066017178
21
-101.066017178
0
LINE
5
34A
100
AcDbEntity
8
0
6
ByLayer
62
256
370
-1
100
AcDbLine
10
-37.4264068712
20
-60.033008589
11
-37.4264068712
21
-64.3969696197
0
LINE
5
34B
100
AcDbEntity
8
0
6
ByLayer
62
256
370
-1
100
AcDbLine
10
-38.8198051534
20
-58.6396103068
11
-39.9264068712
21
-58.6396103068
0
LINE
5
34C
100
AcDbEntity
8
0
6
ByLayer
62
256
370
-1
100
AcDbLine
10
-36.8198051534
20
-73.4888527117
11
-36.8198051534
21
-77.8528137424
0
ARC
5
34D
100
AcDbEntity
8
0
6
ByLayer
62
256
370
-1
100
AcDbCircle
10
-38.8198051534
20
-77.8528137424
40
2
100
AcDbArc
50
270
51
0
0
LINE
5
34E
100
AcDbEntity
8
0
6
ByLayer
62
256
370
-1
100
AcDbLine
10
-35.4264068712
20
-79.2462120246
11
-31.0624458405
21
-79.2462120246
0
ARC
5
34F
100
AcDbEntity
8
0
6
ByLayer
62
256
370
-1
100
AcDbCircle
10
-35.4264068712
20
-81.2462120246
40
2
100
AcDbArc
50
90
51
180
0
LINE
5
350
100
AcDbEntity
8
0
6
ByLayer
62
256
370
-1
100
AcDbLine
10
-26.2132034356
20
-84.0954544295
11
-26.2132034356
21
-88.4594154602
0
ARC
5
351
100
AcDbEntity
8
0
6
ByLayer
62
256
370
-1
100
AcDbCircle
10
-28.2132034356
20
-88.4594154602
40
2
100
AcDbArc
50
270
51
0
0
LINE
5
352
100
AcDbEntity
8
0
6
ByLayer
62
256
370
-1
100
AcDbLine
10
-24.8198051534
20
-89.8528137424
11
-20.4558441227
21
-89.8528137424
0
ARC
5
353
100
AcDbEntity
8
0
6
ByLayer
62
256
370
-1
100
AcDbCircle
10
-24.8198051534
20
-91.8528137424
40
2
100
AcDbArc
50
90
51
180
0
LINE
5
354
100
AcDbEntity
8
0
6
ByLayer
62
256
370
-1
100
AcDbLine
10
-15.6066017178
20
-94.7020561473
11
-15.6066017178
21
-99.066017178
0
ARC
5
355
100
AcDbEntity
8
0
6
ByLayer
62
256
370
-1
100
AcDbCircle
10
-17.6066017178
20
-99.066017178
40
2
100
AcDbArc
50
270
51
0
0
LINE
5
356
100
AcDbEntity
8
0
6
ByLayer
62
256
370
-1
100
AcDbLine
10
-14.2132034356
20
-100.45941546
11
-9.84924240493
21
-100.45941546
0
ARC
5
357
100
AcDbEntity
8
0
6
ByLayer
62
256
370
-1
100
AcDbCircle
10
-14.2132034356
20
-102.45941546
40
2
100
AcDbArc
50
90
51
180
0
LINE
5
358
100
AcDbEntity
8
0
6
ByLayer
62
256
370
-1
100
AcDbLine
10
-5
20
-105.308657865
11
-5
21
-109.672618896
0
ARC
5
359
100
AcDbEntity
8
0
6
ByLayer
62
256
370
-1
100
AcDbCircle
10
-7
20
-109.672618896
40
2
100
AcDbArc
50
270
51
0
0
LINE
5
35A
100
AcDbEntity
8
0
6
ByLayer
62
256
370
-1
100
AcDbLine
10
-3.6066017178
20
-111.066017178
11
0.757359312871
21
-111.066017178
0
ARC
5
35B
100
AcDbEntity
8
0
6
ByLayer
62
256
370
-1
100
AcDbCircle
10
-3.6066017178
20
-113.066017178
40
2
100
AcDbArc
50
90
51
180
0
ARC
5
35C
100
AcDbEntity
8
0
6
ByLayer
62
256
370
-1
100
AcDbCircle
10
29.627416998
20
-128.036579926
40
3.41421356237
100
AcDbArc
50
180
51
225
0
ARC
5
35D
100
AcDbEntity
8
0
6
ByLayer
62
256
370
-1
100
AcDbCircle
10
21.9705627485
20
-135.693434176
40
3.41421356239
100
AcDbArc
50
45.0000000002
51
90
0
LINE
5
35E
100
AcDbEntity
8
0
6
ByLayer
62
256
370
-1
100
AcDbLine
10
27.2132034356
20
-130.450793489
11
24.3847763108
21
-133.279220614
0
ARC
5
35F
100
AcDbEntity
8
0
6
ByLayer
62
256
370
-1
100
AcDbCircle
10
11.3639610307
20
-125.086832458
40
3.41421356239
100
AcDbArc
50
45.0000000002
51
90
0
ARC
5
360
100
AcDbEntity
8
0
6
ByLayer
62
256
370
-1
100
AcDbCircle
10
12.7989898732
20
-126.521861301
40
3.41421356235
100
AcDbArc
50
0
51
45.0000000002
0
LINE
5
361
100
AcDbEntity
8
0
6
ByLayer
62
256
370
-1
100
AcDbLine
10
13.778174593
20
-122.672618896
11
15.2132034356
21
-124.107647738
0
LINE
5
362
100
AcDbEntity
8
0
6
ByLayer
62
256
370
-1
100
AcDbLine
10
5.6066017178
20
-115.915259583
11
5.6066017178
21
-120.279220614
0
ARC
5
363
100
AcDbEntity
8
0
6
ByLayer
62
256
370
-1
100
AcDbCircle
10
3.6066017178
20
-120.279220614
40
2
100
AcDbArc
50
270
51
0
0
LINE
5
364
100
AcDbEntity
8
0
6
ByLayer
62
256
370
-1
100
AcDbLine
10
7
20
-121.672618896
11
11.3639610307
21
-121.672618896
0
ARC
5
365
100
AcDbEntity
8
0
6
ByLayer
62
256
370
-1
100
AcDbCircle
10
7
20
-123.672618896
40
2
100
AcDbArc
50
90
51
180
0
ARC
5
366
100
AcDbEntity
8
0
6
ByLayer
62
256
370
-1
100
AcDbCircle
10
19.0208152802
20
-117.429978209
40
3.41421356237
100
AcDbArc
50
180
51
225
0
LINE
5
367
100
AcDbEntity
8
0
6
ByLayer
62
256
370
-1
100
AcDbLine
10
19.7132034356
20
-120.279220614
11
22.7132034356
21
-120.279220614
0
LINE
5
368
100
AcDbEntity
8
0
6
ByLayer
62
256
370
-1
100
AcDbLine
10
22.7132034356
20
-120.279220614
11
22.7132034356
21
-121.279220614
0
ARC
5
369
100
AcDbEntity
8
0
6
ByLayer
62
256
370
-1
100
AcDbCircle
10
23.7132034356
20
-121.279220614
40
1
100
AcDbArc
50
180
51
270
0
LINE
5
36A
100
AcDbEntity
8
0
6
ByLayer
62
256
370
-1
100
AcDbLine
10
19.7132034356
20
-120.279220614
11
19.7132034356
21
-121.906689388
0
ARC
5
36B
100
AcDbEntity
8
0
6
ByLayer
62
256
370
-1
100
AcDbCircle
10
19.1438136787
20
-121.906689388
40
0.569389756847
100
AcDbArc
50
220.86386677
51
360
0
LINE
5
36C
100
AcDbEntity
8
0
6
ByLayer
62
256
370
-1
100
AcDbLine
10
16.6066017178
20
-119.844191771
11
18.7132034356
21
-122.279220614
0
LINE
5
36D
100
AcDbEntity
8
0
6
ByLayer
62
256
370
-1
100
AcDbLine
10
15.6066017178
20
-113.066017178
11
15.6066017178
21
-117.429978209
0
LINE
5
36E
100
AcDbEntity
8
0
6
ByLayer
62
256
370
-1
100
AcDbLine
10
24.8198051534
20
-122.279220614
11
23.7132034356
21
-122.279220614
0
LINE
5
36F
100
AcDbEntity
8
0
6
ByLayer
62
256
370
-1
100
AcDbLine
10
26.2132034356
20
-123.672618896
11
26.2132034356
21
-128.036579926
0
CIRCLE
5
370
100
AcDbEntity
8
0
6
ByLayer
62
256
370
-1
100
AcDbCircle
10
21.2132034356
20
-127.279220614
40
2
0
LINE
5
371
100
AcDbEntity
8
0
6
ByLayer
62
256
370
-1
100
AcDbLine
10
-54.533008589
20
-46.033008589
11
-51.533008589
21
-46.033008589
0
CIRCLE
5
372
100
AcDbEntity
8
0
6
ByLayer
62
256
370
-1
100
AcDbCircle
10
-53.033008589
20
-53.033008589
40
2
0
ARC
5
373
100
AcDbEntity
8
0
6
ByLayer
62
256
370
-1
100
AcDbCircle
10
-52.2756492761
20
-61.4472221514
40
3.41421356239
100
AcDbArc
50
45.0000000002
51
90
0
LINE
5
374
100
AcDbEntity
8
0
6
ByLayer
62
256
370
-1
100
AcDbLine
10
-51.533008589
20
-46.033008589
11
-51.533008589
21
-47.033008589
0
ARC
5
375
100
AcDbEntity
8
0
6
ByLayer
62
256
370
-1
100
AcDbCircle
10
-50.533008589
20
-47.033008589
40
1
100
AcDbArc
50
180
51
270
0
ARC
5
376
100
AcDbEntity
8
0
6
ByLayer
62
256
370
-1
100
AcDbCircle
10
-57.033008589
20
-49.033008589
40
1
100
AcDbArc
50
90
51
180
0
LINE
5
377
100
AcDbEntity
8
0
6
ByLayer
62
256
370
-1
100
AcDbLine
10
-55.533008589
20
-48.033008589
11
-57.033008589
21
-48.033008589
0
ARC
5
378
100
AcDbEntity
8
0
6
ByLayer
62
256
370
-1
100
AcDbCircle
10
-55.533008589
20
-47.033008589
40
1
100
AcDbArc
50
270
51
0
0
LINE
5
379
100
AcDbEntity
8
0
6
ByLayer
62
256
370
-1
100
AcDbLine
10
-54.533008589
20
-46.033008589
11
-54.533008589
21
-47.0330083506
0
ARC
5
37A
100
AcDbEntity
8
0
6
ByLayer
62
256
370
-1
100
AcDbCircle
10
-50.8406204335
20
-62.8822509939
40
3.41421356235
100
AcDbArc
50
0
51
45.0000000002
0
LINE
5
37B
100
AcDbEntity
8
0
6
ByLayer
62
256
370
-1
100
AcDbLine
10
-43.9264068712
20
-56.6396103068
11
-43.9264068712
21
-58.2670790817
0
ARC
5
37C
100
AcDbEntity
8
0
6
ByLayer
62
256
370
-1
100
AcDbCircle
10
-44.495796628
20
-58.2670790817
40
0.569389756847
100
AcDbArc
50
220.86386677
51
360
0
LINE
5
37D
100
AcDbEntity
8
0
6
ByLayer
62
256
370
-1
100
AcDbLine
10
-49.8614357137
20
-59.033008589
11
-48.4264068712
21
-60.4680374315
0
LINE
5
37E
100
AcDbEntity
8
0
6
ByLayer
62
256
370
-1
100
AcDbLine
10
-47.4264068712
20
-62.8822509939
11
-47.4264068712
21
-67.2462120246
0
ARC
5
37F
100
AcDbEntity
8
0
6
ByLayer
62
256
370
-1
100
AcDbCircle
10
-49.4264068712
20
-67.2462120246
40
2
100
AcDbArc
50
270
51
0
0
LINE
5
380
100
AcDbEntity
8
0
6
ByLayer
62
256
370
-1
100
AcDbLine
10
-46.033008589
20
-68.6396103068
11
-41.6690475583
21
-68.6396103068
0
ARC
5
381
100
AcDbEntity
8
0
6
ByLayer
62
256
370
-1
100
AcDbCircle
10
-46.033008589
20
-70.6396103068
40
2
100
AcDbArc
50
90
51
180
0
LINE
5
382
100
AcDbEntity
8
0
6
ByLayer
62
256
370
-1
100
AcDbLine
10
-49.4264068712
20
-48.033008589
11
-50.533008589
21
-48.033008589
0
LINE
5
383
100
AcDbEntity
8
0
6
ByLayer
62
256
370
-1
100
AcDbLine
10
-48.033008589
20
-49.4264068712
11
-48.033008589
21
-53.7903679019
0
ARC
5
384
100
AcDbEntity
8
0
6
ByLayer
62
256
370
-1
100
AcDbCircle
10
-44.2424100593
20
-53.7903679019
40
3.79059852974
100
AcDbArc
50
180
51
220.86386677
0
LINE
5
385
100
AcDbEntity
8
0
6
ByLayer
62
256
370
-1
100
AcDbLine
10
-47.1091117077
20
-56.2704200933
11
-44.9264068712
21
-58.6396103068
0
LINE
5
386
100
AcDbEntity
8
0
6
ByLayer
62
256
370
-1
100
AcDbLine
10
16.2132034356
20
-126.521861301
11
16.2132034356
21
-131.279220614
0
ARC
5
387
100
AcDbEntity
8
0
6
ByLayer
62
256
370
-1
100
AcDbCircle
10
14.2132034356
20
-130.885822331
40
2
100
AcDbArc
50
270
51
0
0
LINE
5
388
100
AcDbEntity
8
0
6
ByLayer
62
256
370
-1
100
AcDbLine
10
17.6066017178
20
-132.279220614
11
21.9705627485
21
-132.279220614
0
ARC
5
389
100
AcDbEntity
8
0
6
ByLayer
62
256
370
-1
100
AcDbCircle
10
17.6066017178
20
-134.279220614
40
2
100
AcDbArc
50
90
51
180
0
ARC
5
38A
100
AcDbEntity
8
0
6
ByLayer
62
256
370
-1
100
AcDbCircle
10
-60.033008589
20
-56.6396103068
40
2
100
AcDbArc
50
270
51
0
0
LINE
5
38B
100
AcDbEntity
8
0
6
ByLayer
62
256
370
-1
100
AcDbLine
10
-58.033008589
20
-49.033008589
11
-58.033008589
21
-56.6396103068
0
LINE
5
38C
100
AcDbEntity
8
0
6
ByLayer
62
256
370
-1
100
AcDbLine
10
-56.6396103068
20
-58.033008589
11
-52.2756492761
21
-58.033008589
0
ARC
5
38D
100
AcDbEntity
8
0
6
ByLayer
62
256
370
-1
100
AcDbCircle
10
-56.6396103068
20
-60.033008589
40
2
100
AcDbArc
50
90
51
180
0
LINE
5
38E
100
AcDbEntity
8
0
6
ByLayer
62
256
370
-1
100
AcDbLine
10
-54.533008589
20
-67.2462120246
11
-51.533008589
21
-67.2462120246
0
CIRCLE
5
38F
100
AcDbEntity
8
0
6
ByLayer
62
256
370
-1
100
AcDbCircle
10
-53.033008589
20
-74.2462120246
40
2
0
ARC
5
390
100
AcDbEntity
8
0
6
ByLayer
62
256
370
-1
100
AcDbCircle
10
-44.6187950266
20
-75.0035713375
40
3.41421356237
100
AcDbArc
50
180
51
225
0
ARC
5
391
100
AcDbEntity
8
0
6
ByLayer
62
256
370
-1
100
AcDbCircle
10
-52.2756492761
20
-82.660425587
40
3.41421356239
100
AcDbArc
50
45.0000000002
51
90
0
LINE
5
392
100
AcDbEntity
8
0
6
ByLayer
62
256
370
-1
100
AcDbLine
10
-51.533008589
20
-67.2462120246
11
-51.533008589
21
-68.2462120246
0
ARC
5
393
100
AcDbEntity
8
0
6
ByLayer
62
256
370
-1
100
AcDbCircle
10
-50.533008589
20
-68.2462120246
40
1
100
AcDbArc
50
180
51
270
0
LINE
5
394
100
AcDbEntity
8
0
6
ByLayer
62
256
370
-1
100
AcDbLine
10
-43.9264068712
20
-77.8528137424
11
-40.9264068712
21
-77.8528137424
0
ARC
5
395
100
AcDbEntity
8
0
6
ByLayer
62
256
370
-1
100
AcDbCircle
10
-34.0121933088
20
-85.6101730553
40
3.41421356237
100
AcDbArc
50
180
51
225
0
ARC
5
396
100
AcDbEntity
8
0
6
ByLayer
62
256
370
-1
100
AcDbCircle
10
-41.6690475583
20
-93.2670273048
40
3.41421356239
100
AcDbArc
50
45.0000000002
51
90
0
LINE
5
397
100
AcDbEntity
8
0
6
ByLayer
62
256
370
-1
100
AcDbLine
10
-40.9264068712
20
-77.8528137424
11
-40.9264068712
21
-78.8528137424
0
ARC
5
398
100
AcDbEntity
8
0
6
ByLayer
62
256
370
-1
100
AcDbCircle
10
-39.9264068712
20
-78.8528137424
40
1
100
AcDbArc
50
180
51
270
0
ARC
5
399
100
AcDbEntity
8
0
6
ByLayer
62
256
370
-1
100
AcDbCircle
10
-50.8406204335
20
-84.0954544295
40
3.41421356235
100
AcDbArc
50
0
51
45.0000000002
0
LINE
5
39A
100
AcDbEntity
8
0
6
ByLayer
62
256
370
-1
100
AcDbLine
10
-43.9264068712
20
-77.8528137424
11
-43.9264068712
21
-79.4802825173
0
ARC
5
39B
100
AcDbEntity
8
0
6
ByLayer
62
256
370
-1
100
AcDbCircle
10
-44.495796628
20
-79.4802825173
40
0.569389756847
100
AcDbArc
50
220.86386677
51
360
0
CIRCLE
5
39C
100
AcDbEntity
8
0
6
ByLayer
62
256
370
-1
100
AcDbCircle
10
-42.4264068712
20
-84.8528137424
40
2
0
LINE
5
39D
100
AcDbEntity
8
0
6
ByLayer
62
256
370
-1
100
AcDbLine
10
-33.3198051534
20
-88.4594154602
11
-30.3198051534
21
-88.4594154602
0
ARC
5
39E
100
AcDbEntity
8
0
6
ByLayer
62
256
370
-1
100
AcDbCircle
10
-31.0624458405
20
-103.873629023
40
3.41421356239
100
AcDbArc
50
45.0000000002
51
90
0
LINE
5
39F
100
AcDbEntity
8
0
6
ByLayer
62
256
370
-1
100
AcDbLine
10
-30.3198051534
20
-88.4594154602
11
-30.3198051534
21
-89.4594154602
0
ARC
5
3A0
100
AcDbEntity
8
0
6
ByLayer
62
256
370
-1
100
AcDbCircle
10
-29.3198051534
20
-89.4594154602
40
1
100
AcDbArc
50
180
51
270
0
ARC
5
3A1
100
AcDbEntity
8
0
6
ByLayer
62
256
370
-1
100
AcDbCircle
10
-40.2340187157
20
-94.7020561473
40
3.41421356235
100
AcDbArc
50
0
51
45.0000000002
0
LINE
5
3A2
100
AcDbEntity
8
0
6
ByLayer
62
256
370
-1
100
AcDbLine
10
-33.3198051534
20
-88.4594154602
11
-33.3198051534
21
-90.0868842351
0
ARC
5
3A3
100
AcDbEntity
8
0
6
ByLayer
62
256
370
-1
100
AcDbCircle
10
-33.8891949102
20
-90.0868842351
40
0.569389756847
100
AcDbArc
50
220.86386677
51
360
0
CIRCLE
5
3A4
100
AcDbEntity
8
0
6
ByLayer
62
256
370
-1
100
AcDbCircle
10
-31.8198051534
20
-95.4594154602
40
2
0
ARC
5
3A5
100
AcDbEntity
8
0
6
ByLayer
62
256
370
-1
100
AcDbCircle
10
-20.4558441227
20
-114.48023074
40
3.41421356239
100
AcDbArc
50
45.0000000002
51
90
0
ARC
5
3A6
100
AcDbEntity
8
0
6
ByLayer
62
256
370
-1
100
AcDbCircle
10
-29.6274169979
20
-105.308657865
40
3.41421356235
100
AcDbArc
50
0
51
45.0000000002
0
CIRCLE
5
3A7
100
AcDbEntity
8
0
6
ByLayer
62
256
370
-1
100
AcDbCircle
10
-21.2132034356
20
-106.066017178
40
2
0
ARC
5
3A8
100
AcDbEntity
8
0
6
ByLayer
62
256
370
-1
100
AcDbCircle
10
-9.84924240493
20
-125.086832458
40
3.41421356239
100
AcDbArc
50
45.0000000002
51
90
0
ARC
5
3A9
100
AcDbEntity
8
0
6
ByLayer
62
256
370
-1
100
AcDbCircle
10
-19.0208152801
20
-115.915259583
40
3.41421356235
100
AcDbArc
50
0
51
45.0000000002
0
CIRCLE
5
3AA
100
AcDbEntity
8
0
6
ByLayer
62
256
370
-1
100
AcDbCircle
10
-10.6066017178
20
-116.672618896
40
2
0
ARC
5
3AB
100
AcDbEntity
8
0
6
ByLayer
62
256
370
-1
100
AcDbCircle
10
-8.41421356235
20
-126.521861301
40
3.41421356235
100
AcDbArc
50
0
51
45.0000000002
0
CIRCLE
5
3AC
100
AcDbEntity
8
0
6
ByLayer
62
256
370
-1
100
AcDbCircle
10
-9.59232693276e-14
20
-127.279220614
40
2
0
LINE
5
3AD
100
AcDbEntity
8
0
6
ByLayer
62
256
370
-1
100
AcDbLine
10
-47.033008589
20
-77.4177848998
11
-44.9264068712
21
-79.8528137424
0
LINE
5
3AE
100
AcDbEntity
8
0
6
ByLayer
62
256
370
-1
100
AcDbLine
10
-49.8614357137
20
-80.2462120246
11
-48.4264068712
21
-81.6812408671
0
LINE
5
3AF
100
AcDbEntity
8
0
6
ByLayer
62
256
370
-1
100
AcDbLine
10
-36.4264068712
20
-88.0243866176
11
-34.3198051534
21
-90.4594154602
0
LINE
5
3B0
100
AcDbEntity
8
0
6
ByLayer
62
256
370
-1
100
AcDbLine
10
-39.2548339959
20
-90.8528137424
11
-37.8198051534
21
-92.2878425849
0
LINE
5
3B1
100
AcDbEntity
8
0
6
ByLayer
62
256
370
-1
100
AcDbLine
10
-28.6482322781
20
-101.45941546
11
-27.2132034356
21
-102.894444303
0
LINE
5
3B2
100
AcDbEntity
8
0
6
ByLayer
62
256
370
-1
100
AcDbLine
10
-18.0416305603
20
-112.066017178
11
-16.6066017178
21
-113.501046021
0
LINE
5
3B3
100
AcDbEntity
8
0
6
ByLayer
62
256
370
-1
100
AcDbLine
10
-7.43502884255
20
-122.672618896
11
-6
21
-124.107647738
0
LINE
5
3B4
100
AcDbEntity
8
0
6
ByLayer
62
256
370
-1
100
AcDbLine
10
-38.8198051534
20
-79.8528137424
11
-39.9264068712
21
-79.8528137424
0
LINE
5
3B5
100
AcDbEntity
8
0
6
ByLayer
62
256
370
-1
100
AcDbLine
10
-37.4264068712
20
-81.2462120246
11
-37.4264068712
21
-85.6101730553
0
LINE
5
3B6
100
AcDbEntity
8
0
6
ByLayer
62
256
370
-1
100
AcDbLine
10
-28.2132034356
20
-90.4594154602
11
-29.3198051534
21
-90.4594154602
0
ARC
5
3B7
100
AcDbEntity
8
0
6
ByLayer
62
256
370
-1
100
AcDbCircle
10
-23.405591591
20
-96.2167747731
40
3.41421356237
100
AcDbArc
50
180
51
225
0
LINE
5
3B8
100
AcDbEntity
8
0
6
ByLayer
62
256
370
-1
100
AcDbLine
10
-22.7132034356
20
-99.066017178
11
-19.7132034356
21
-99.066017178
0
LINE
5
3B9
100
AcDbEntity
8
0
6
ByLayer
62
256
370
-1
100
AcDbLine
10
-19.7132034356
20
-99.066017178
11
-19.7132034356
21
-100.066017178
0
ARC
5
3BA
100
AcDbEntity
8
0
6
ByLayer
62
256
370
-1
100
AcDbCircle
10
-18.7132034356
20
-100.066017178
40
1
100
AcDbArc
50
180
51
270
0
LINE
5
3BB
100
AcDbEntity
8
0
6
ByLayer
62
256
370
-1
100
AcDbLine
10
-22.7132034356
20
-99.066017178
11
-22.7132034356
21
-100.693485953
0
ARC
5
3BC
100
AcDbEntity
8
0
6
ByLayer
62
256
370
-1
100
AcDbCircle
10
-23.2825931924
20
-100.693485953
40
0.569389756847
100
AcDbArc
50
220.86386677
51
360
0
LINE
5
3BD
100
AcDbEntity
8
0
6
ByLayer
62
256
370
-1
100
AcDbLine
10
-25.8198051534
20
-98.6309883354
11
-23.7132034356
21
-101.066017178
0
LINE
5
3BE
100
AcDbEntity
8
0
6
ByLayer
62
256
370
-1
100
AcDbLine
10
-26.8198051534
20
-91.8528137424
11
-26.8198051534
21
-96.2167747731
0
LINE
5
3BF
100
AcDbEntity
8
0
6
ByLayer
62
256
370
-1
100
AcDbLine
10
-17.6066017178
20
-101.066017178
11
-18.7132034356
21
-101.066017178
0
ARC
5
3C0
100
AcDbEntity
8
0
6
ByLayer
62
256
370
-1
100
AcDbCircle
10
-12.7989898732
20
-106.823376491
40
3.41421356237
100
AcDbArc
50
180
51
225
0
LINE
5
3C1
100
AcDbEntity
8
0
6
ByLayer
62
256
370
-1
100
AcDbLine
10
-12.1066017178
20
-109.672618896
11
-9.1066017178
21
-109.672618896
0
LINE
5
3C2
100
AcDbEntity
8
0
6
ByLayer
62
256
370
-1
100
AcDbLine
10
-9.1066017178
20
-109.672618896
11
-9.1066017178
21
-110.672618896
0
ARC
5
3C3
100
AcDbEntity
8
0
6
ByLayer
62
256
370
-1
100
AcDbCircle
10
-8.1066017178
20
-110.672618896
40
1
100
AcDbArc
50
180
51
270
0
LINE
5
3C4
100
AcDbEntity
8
0
6
ByLayer
62
256
370
-1
100
AcDbLine
10
-12.1066017178
20
-109.672618896
11
-12.1066017178
21
-111.300087671
0
ARC
5
3C5
100
AcDbEntity
8
0
6
ByLayer
62
256
370
-1
100
AcDbCircle
10
-12.6759914746
20
-111.300087671
40
0.569389756847
100
AcDbArc
50
220.86386677
51
360
0
LINE
5
3C6
100
AcDbEntity
8
0
6
ByLayer
62
256
370
-1
100
AcDbLine
10
-15.2132034356
20
-109.237590053
11
-13.1066017178
21
-111.672618896
0
LINE
5
3C7
100
AcDbEntity
8
0
6
ByLayer
62
256
370
-1
100
AcDbLine
10
-16.2132034356
20
-102.45941546
11
-16.2132034356
21
-106.823376491
0
ARC
5
3C8
100
AcDbEntity
8
0
6
ByLayer
62
256
370
-1
100
AcDbCircle
10
-2.19238815543
20
-117.429978209
40
3.41421356237
100
AcDbArc
50
180
51
225
0
LINE
5
3C9
100
AcDbEntity
8
0
6
ByLayer
62
256
370
-1
100
AcDbLine
10
-1.5
20
-120.279220614
11
1.5
21
-120.279220614
0
LINE
5
3CA
100
AcDbEntity
8
0
6
ByLayer
62
256
370
-1
100
AcDbLine
10
1.5
20
-120.279220614
11
1.5
21
-121.279220614
0
ARC
5
3CB
100
AcDbEntity
8
0
6
ByLayer
62
256
370
-1
100
AcDbCircle
10
2.5
20
-121.279220614
40
1
100
AcDbArc
50
180
51
270
0
LINE
5
3CC
100
AcDbEntity
8
0
6
ByLayer
62
256
370
-1
100
AcDbLine
10
-1.5
20
-120.279220614
11
-1.5
21
-121.906689388
0
ARC
5
3CD
100
AcDbEntity
8
0
6
ByLayer
62
256
370
-1
100
AcDbCircle
10
-2.06938975685
20
-121.906689388
40
0.569389756847
100
AcDbArc
50
220.86386677
51
360
0
LINE
5
3CE
100
AcDbEntity
8
0
6
ByLayer
62
256
370
-1
100
AcDbLine
10
-4.6066017178
20
-119.844191771
11
-2.5
21
-122.279220614
0
LINE
5
3CF
100
AcDbEntity
8
0
6
ByLayer
62
256
370
-1
100
AcDbLine
10
-5.6066017178
20
-113.066017178
11
-5.6066017178
21
-117.429978209
0
LINE
5
3D0
100
AcDbEntity
8
0
6
ByLayer
62
256
370
-1
100
AcDbLine
10
3.6066017178
20
-122.279220614
11
2.5
21
-122.279220614
0
LINE
5
3D1
100
AcDbEntity
8
0
6
ByLayer
62
256
370
-1
100
AcDbLine
10
-8.1066017178
20
-111.672618896
11
-7
21
-111.672618896
0
LINE
5
3D2
100
AcDbEntity
8
0
6
ByLayer
62
256
370
-1
100
AcDbLine
10
-48.033008589
20
-70.6396103068
11
-48.033008589
21
-75.0035713375
0
LINE
5
3D3
100
AcDbEntity
8
0
6
ByLayer
62
256
370
-1
100
AcDbLine
10
-49.4264068712
20
-69.2462120246
11
-50.533008589
21
-69.2462120246
0
LINE
5
3D4
100
AcDbEntity
8
0
6
ByLayer
62
256
370
-1
100
AcDbLine
10
-47.4264068712
20
-84.0954544295
11
-47.4264068712
21
-88.4594154602
0
ARC
5
3D5
100
AcDbEntity
8
0
6
ByLayer
62
256
370
-1
100
AcDbCircle
10
-49.4264068712
20
-88.4594154602
40
2
100
AcDbArc
50
270
51
0
0
LINE
5
3D6
100
AcDbEntity
8
0
6
ByLayer
62
256
370
-1
100
AcDbLine
10
-46.033008589
20
-89.8528137424
11
-41.6690475583
21
-89.8528137424
0
ARC
5
3D7
100
AcDbEntity
8
0
6
ByLayer
62
256
370
-1
100
AcDbCircle
10
-46.033008589
20
-91.8528137424
40
2
100
AcDbArc
50
90
51
180
0
LINE
5
3D8
100
AcDbEntity
8
0
6
ByLayer
62
256
370
-1
100
AcDbLine
10
-36.8198051534
20
-94.7020561473
11
-36.8198051534
21
-99.066017178
0
ARC
5
3D9
100
AcDbEntity
8
0
6
ByLayer
62
256
370
-1
100
AcDbCircle
10
-38.8198051534
20
-99.066017178
40
2
100
AcDbArc
50
270
51
0
0
LINE
5
3DA
100
AcDbEntity
8
0
6
ByLayer
62
256
370
-1
100
AcDbLine
10
-35.4264068712
20
-100.45941546
11
-31.0624458405
21
-100.45941546
0
ARC
5
3DB
100
AcDbEntity
8
0
6
ByLayer
62
256
370
-1
100
AcDbCircle
10
-35.4264068712
20
-102.45941546
40
2
100
AcDbArc
50
90
51
180
0
LINE
5
3DC
100
AcDbEntity
8
0
6
ByLayer
62
256
370
-1
100
AcDbLine
10
-26.2132034356
20
-105.308657865
11
-26.2132034356
21
-109.672618896
0
ARC
5
3DD
100
AcDbEntity
8
0
6
ByLayer
62
256
370
-1
100
AcDbCircle
10
-28.2132034356
20
-109.672618896
40
2
100
AcDbArc
50
270
51
0
0
LINE
5
3DE
100
AcDbEntity
8
0
6
ByLayer
62
256
370
-1
100
AcDbLine
10
-24.8198051534
20
-111.066017178
11
-20.4558441227
21
-111.066017178
0
ARC
5
3DF
100
AcDbEntity
8
0
6
ByLayer
62
256
370
-1
100
AcDbCircle
10
-24.8198051534
20
-113.066017178
40
2
100
AcDbArc
50
90
51
180
0
LINE
5
3E0
100
AcDbEntity
8
0
6
ByLayer
62
256
370
-1
100
AcDbLine
10
-15.6066017178
20
-115.915259583
11
-15.6066017178
21
-120.279220614
0
ARC
5
3E1
100
AcDbEntity
8
0
6
ByLayer
62
256
370
-1
100
AcDbCircle
10
-17.6066017178
20
-120.279220614
40
2
100
AcDbArc
50
270
51
0
0
LINE
5
3E2
100
AcDbEntity
8
0
6
ByLayer
62
256
370
-1
100
AcDbLine
10
-14.2132034356
20
-121.672618896
11
-9.84924240493
21
-121.672618896
0
ARC
5
3E3
100
AcDbEntity
8
0
6
ByLayer
62
256
370
-1
100
AcDbCircle
10
-14.2132034356
20
-123.672618896
40
2
100
AcDbArc
50
90
51
180
0
ARC
5
3E4
100
AcDbEntity
8
0
6
ByLayer
62
256
370
-1
100
AcDbCircle
10
19.0208152802
20
-138.643181644
40
3.41421356237
100
AcDbArc
50
180
51
225
0
ARC
5
3E5
100
AcDbEntity
8
0
6
ByLayer
62
256
370
-1
100
AcDbCircle
10
11.3639610307
20
-146.300035894
40
3.41421356239
100
AcDbArc
50
45.0000000002
51
90
0
LINE
5
3E6
100
AcDbEntity
8
0
6
ByLayer
62
256
370
-1
100
AcDbLine
10
16.6066017178
20
-141.057395207
11
13.778174593
21
-143.885822331
0
ARC
5
3E7
100
AcDbEntity
8
0
6
ByLayer
62
256
370
-1
100
AcDbCircle
10
0.757359312871
20
-135.693434176
40
3.41421356239
100
AcDbArc
50
45.0000000002
51
90
0
ARC
5
3E8
100
AcDbEntity
8
0
6
ByLayer
62
256
370
-1
100
AcDbCircle
10
2.19238815545
20
-137.128463018
40
3.41421356235
100
AcDbArc
50
0
51
45.0000000002
0
LINE
5
3E9
100
AcDbEntity
8
0
6
ByLayer
62
256
370
-1
100
AcDbLine
10
3.17157287525
20
-133.279220614
11
4.6066017178
21
-134.714249456
0
LINE
5
3EA
100
AcDbEntity
8
0
6
ByLayer
62
256
370
-1
100
AcDbLine
10
-5
20
-126.521861301
11
-5
21
-130.885822331
0
ARC
5
3EB
100
AcDbEntity
8
0
6
ByLayer
62
256
370
-1
100
AcDbCircle
10
-7
20
-130.885822331
40
2
100
AcDbArc
50
270
51
0
0
LINE
5
3EC
100
AcDbEntity
8
0
6
ByLayer
62
256
370
-1
100
AcDbLine
10
-3.6066017178
20
-132.279220614
11
0.757359312871
21
-132.279220614
0
ARC
5
3ED
100
AcDbEntity
8
0
6
ByLayer
62
256
370
-1
100
AcDbCircle
10
-3.6066017178
20
-134.279220614
40
2
100
AcDbArc
50
90
51
180
0
ARC
5
3EE
100
AcDbEntity
8
0
6
ByLayer
62
256
370
-1
100
AcDbCircle
10
8.41421356237
20
-128.036579926
40
3.41421356237
100
AcDbArc
50
180
51
225
0
LINE
5
3EF
100
AcDbEntity
8
0
6
ByLayer
62
256
370
-1
100
AcDbLine
10
9.1066017178
20
-130.885822331
11
12.1066017178
21
-130.885822331
0
LINE
5
3F0
100
AcDbEntity
8
0
6
ByLayer
62
256
370
-1
100
AcDbLine
10
12.1066017178
20
-130.885822331
11
12.1066017178
21
-131.885822331
0
ARC
5
3F1
100
AcDbEntity
8
0
6
ByLayer
62
256
370
-1
100
AcDbCircle
10
13.1066017178
20
-131.885822331
40
1
100
AcDbArc
50
180
51
270
0
LINE
5
3F2
100
AcDbEntity
8
0
6
ByLayer
62
256
370
-1
100
AcDbLine
10
9.1066017178
20
-130.885822331
11
9.1066017178
21
-132.513291106
0
ARC
5
3F3
100
AcDbEntity
8
0
6
ByLayer
62
256
370
-1
100
AcDbCircle
10
8.53721196095
20
-132.513291106
40
0.569389756847
100
AcDbArc
50
220.86386677
51
360
0
LINE
5
3F4
100
AcDbEntity
8
0
6
ByLayer
62
256
370
-1
100
AcDbLine
10
6
20
-130.450793489
11
8.1066017178
21
-132.885822331
0
LINE
5
3F5
100
AcDbEntity
8
0
6
ByLayer
62
256
370
-1
100
AcDbLine
10
5
20
-123.672618896
11
5
21
-128.036579926
0
LINE
5
3F6
100
AcDbEntity
8
0
6
ByLayer
62
256
370
-1
100
AcDbLine
10
14.2132034356
20
-132.885822331
11
13.1066017178
21
-132.885822331
0
LINE
5
3F7
100
AcDbEntity
8
0
6
ByLayer
62
256
370
-1
100
AcDbLine
10
15.6066017178
20
-134.279220614
11
15.6066017178
21
-138.643181644
0
CIRCLE
5
3F8
100
AcDbEntity
8
0
6
ByLayer
62
256
370
-1
100
AcDbCircle
10
10.6066017178
20
-137.885822331
40
2
0
LINE
5
3F9
100
AcDbEntity
8
0
6
ByLayer
62
256
370
-1
100
AcDbLine
10
-65.1396103068
20
-56.6396103068
11
-62.1396103068
21
-56.6396103068
0
CIRCLE
5
3FA
100
AcDbEntity
8
0
6
ByLayer
62
256
370
-1
100
AcDbCircle
10
-63.6396103068
20
-63.6396103068
40
2
0
ARC
5
3FB
100
AcDbEntity
8
0
6
ByLayer
62
256
370
-1
100
AcDbCircle
10
-62.8822509939
20
-72.0538238692
40
3.41421356239
100
AcDbArc
50
45.0000000002
51
90
0
LINE
5
3FC
100
AcDbEntity
8
0
6
ByLayer
62
256
370
-1
100
AcDbLine
10
-62.1396103068
20
-56.6396103068
11
-62.1396103068
21
-57.6396103068
0
ARC
5
3FD
100
AcDbEntity
8
0
6
ByLayer
62
256
370
-1
100
AcDbCircle
10
-61.1396103068
20
-57.6396103068
40
1
100
AcDbArc
50
180
51
270
0
ARC
5
3FE
100
AcDbEntity
8
0
6
ByLayer
62
256
370
-1
100
AcDbCircle
10
-67.6396103068
20
-59.6396103068
40
1
100
AcDbArc
50
90
51
180
0
LINE
5
3FF
100
AcDbEntity
8
0
6
ByLayer
62
256
370
-1
100
AcDbLine
10
-66.1396103068
20
-58.6396103068
11
-67.6396103068
21
-58.6396103068
0
ARC
5
400
100
AcDbEntity
8
0
6
ByLayer
62
256
370
-1
100
AcDbCircle
10
-66.1396103068
20
-57.6396103068
40
1
100
AcDbArc
50
270
51
0
0
LINE
5
401
100
AcDbEntity
8
0
6
ByLayer
62
256
370
-1
100
AcDbLine
10
-65.1396103068
20
-56.6396103068
11
-65.1396103068
21
-57.6396100684
0
ARC
5
402
100
AcDbEntity
8
0
6
ByLayer
62
256
370
-1
100
AcDbCircle
10
-61.4472221513
20
-73.4888527117
40
3.41421356235
100
AcDbArc
50
0
51
45.0000000002
0
LINE
5
403
100
AcDbEntity
8
0
6
ByLayer
62
256
370
-1
100
AcDbLine
10
-54.533008589
20
-67.2462120246
11
-54.533008589
21
-68.8736807995
0
ARC
5
404
100
AcDbEntity
8
0
6
ByLayer
62
256
370
-1
100
AcDbCircle
10
-55.1023983458
20
-68.8736807995
40
0.569389756847
100
AcDbArc
50
220.86386677
51
360
0
LINE
5
405
100
AcDbEntity
8
0
6
ByLayer
62
256
370
-1
100
AcDbLine
10
-60.4680374315
20
-69.6396103068
11
-59.033008589
21
-71.0746391493
0
LINE
5
406
100
AcDbEntity
8
0
6
ByLayer
62
256
370
-1
100
AcDbLine
10
-58.033008589
20
-73.4888527117
11
-58.033008589
21
-77.8528137424
0
ARC
5
407
100
AcDbEntity
8
0
6
ByLayer
62
256
370
-1
100
AcDbCircle
10
-60.033008589
20
-77.8528137424
40
2
100
AcDbArc
50
270
51
0
0
LINE
5
408
100
AcDbEntity
8
0
6
ByLayer
62
256
370
-1
100
AcDbLine
10
-56.6396103068
20
-79.2462120246
11
-52.2756492761
21
-79.2462120246
0
ARC
5
409
100
AcDbEntity
8
0
6
ByLayer
62
256
370
-1
100
AcDbCircle
10
-56.6396103068
20
-81.2462120246
40
2
100
AcDbArc
50
90
51
180
0
LINE
5
40A
100
AcDbEntity
8
0
6
ByLayer
62
256
370
-1
100
AcDbLine
10
-60.033008589
20
-58.6396103068
11
-61.1396103068
21
-58.6396103068
0
LINE
5
40B
100
AcDbEntity
8
0
6
ByLayer
62
256
370
-1
100
AcDbLine
10
-58.6396103068
20
-60.033008589
11
-58.6396103068
21
-64.3969696197
0
ARC
5
40C
100
AcDbEntity
8
0
6
ByLayer
62
256
370
-1
100
AcDbCircle
10
-54.849011777
20
-64.3969696197
40
3.79059852974
100
AcDbArc
50
180
51
220.86386677
0
LINE
5
40D
100
AcDbEntity
8
0
6
ByLayer
62
256
370
-1
100
AcDbLine
10
-57.7157134255
20
-66.8770218111
11
-55.533008589
21
-69.2462120246
0
LINE
5
40E
100
AcDbEntity
8
0
6
ByLayer
62
256
370
-1
100
AcDbLine
10
5.6066017178
20
-137.128463018
11
5.6066017178
21
-141.885822331
0
ARC
5
40F
100
AcDbEntity
8
0
6
ByLayer
62
256
370
-1
100
AcDbCircle
10
3.6066017178
20
-141.492424049
40
2
100
AcDbArc
50
270
51
0
0
LINE
5
410
100
AcDbEntity
8
0
6
ByLayer
62
256
370
-1
100
AcDbLine
10
7
20
-142.885822331
11
11.3639610307
21
-142.885822331
0
ARC
5
411
100
AcDbEntity
8
0
6
ByLayer
62
256
370
-1
100
AcDbCircle
10
7
20
-144.885822331
40
2
100
AcDbArc
50
90
51
180
0
ARC
5
412
100
AcDbEntity
8
0
6
ByLayer
62
256
370
-1
100
AcDbCircle
10
-70.6396103068
20
-67.2462120246
40
2
100
AcDbArc
50
270
51
0
0
LINE
5
413
100
AcDbEntity
8
0
6
ByLayer
62
256
370
-1
100
AcDbLine
10
-68.6396103068
20
-59.6396103068
11
-68.6396103068
21
-67.2462120246
0
LINE
5
414
100
AcDbEntity
8
0
6
ByLayer
62
256
370
-1
100
AcDbLine
10
-67.2462120246
20
-68.6396103068
11
-62.8822509939
21
-68.6396103068
0
ARC
5
415
100
AcDbEntity
8
0
6
ByLayer
62
256
370
-1
100
AcDbCircle
10
-67.2462120246
20
-70.6396103068
40
2
100
AcDbArc
50
90
51
180
0
LINE
5
416
100
AcDbEntity
8
0
6
ByLayer
62
256
370
-1
100
AcDbLine
10
-65.1396103068
20
-77.8528137424
11
-62.1396103068
21
-77.8528137424
0
CIRCLE
5
417
100
AcDbEntity
8
0
6
ByLayer
62
256
370
-1
100
AcDbCircle
10
-63.6396103068
20
-84.8528137424
40
2
0
ARC
5
418
100
AcDbEntity
8
0
6
ByLayer
62
256
370
-1
100
AcDbCircle
10
-55.2253967444
20
-85.6101730553
40
3.41421356237
100
AcDbArc
50
180
51
225
0
ARC
5
419
100
AcDbEntity
8
0
6
ByLayer
62
256
370
-1
100
AcDbCircle
10
-62.8822509939
20
-93.2670273048
40
3.41421356239
100
AcDbArc
50
45.0000000002
51
90
0
LINE
5
41A
100
AcDbEntity
8
0
6
ByLayer
62
256
370
-1
100
AcDbLine
10
-62.1396103068
20
-77.8528137424
11
-62.1396103068
21
-78.8528137424
0
ARC
5
41B
100
AcDbEntity
8
0
6
ByLayer
62
256
370
-1
100
AcDbCircle
10
-61.1396103068
20
-78.8528137424
40
1
100
AcDbArc
50
180
51
270
0
LINE
5
41C
100
AcDbEntity
8
0
6
ByLayer
62
256
370
-1
100
AcDbLine
10
-54.533008589
20
-88.4594154602
11
-51.533008589
21
-88.4594154602
0
ARC
5
41D
100
AcDbEntity
8
0
6
ByLayer
62
256
370
-1
100
AcDbCircle
10
-44.6187950266
20
-96.2167747731
40
3.41421356237
100
AcDbArc
50
180
51
225
0
ARC
5
41E
100
AcDbEntity
8
0
6
ByLayer
62
256
370
-1
100
AcDbCircle
10
-52.2756492761
20
-103.873629023
40
3.41421356239
100
AcDbArc
50
45.0000000002
51
90
0
LINE
5
41F
100
AcDbEntity
8
0
6
ByLayer
62
256
370
-1
100
AcDbLine
10
-51.533008589
20
-88.4594154602
11
-51.533008589
21
-89.4594154602
0
ARC
5
420
100
AcDbEntity
8
0
6
ByLayer
62
256
370
-1
100
AcDbCircle
10
-50.533008589
20
-89.4594154602
40
1
100
AcDbArc
50
180
51
270
0
ARC
5
421
100
AcDbEntity
8
0
6
ByLayer
62
256
370
-1
100
AcDbCircle
10
-61.4472221513
20
-94.7020561473
40
3.41421356235
100
AcDbArc
50
0
51
45.0000000002
0
LINE
5
422
100
AcDbEntity
8
0
6
ByLayer
62
256
370
-1
100
AcDbLine
10
-54.533008589
20
-88.4594154602
11
-54.533008589
21
-90.0868842351
0
ARC
5
423
100
AcDbEntity
8
0
6
ByLayer
62
256
370
-1
100
AcDbCircle
10
-55.1023983458
20
-90.0868842351
40
0.569389756847
100
AcDbArc
50
220.86386677
51
360
0
CIRCLE
5
424
100
AcDbEntity
8
0
6
ByLayer
62
256
370
-1
100
AcDbCircle
10
-53.033008589
20
-95.4594154602
40
2
0
LINE
5
425
100
AcDbEntity
8
0
6
ByLayer
62
256
370
-1
100
AcDbLine
10
-43.9264068712
20
-99.066017178
11
-40.9264068712
21
-99.066017178
0
ARC
5
426
100
AcDbEntity
8
0
6
ByLayer
62
256
370
-1
100
AcDbCircle
10
-41.6690475583
20
-114.48023074
40
3.41421356239
100
AcDbArc
50
45.0000000002
51
90
0
LINE
5
427
100
AcDbEntity
8
0
6
ByLayer
62
256
370
-1
100
AcDbLine
10
-40.9264068712
20
-99.066017178
11
-40.9264068712
21
-100.066017178
0
ARC
5
428
100
AcDbEntity
8
0
6
ByLayer
62
256
370
-1
100
AcDbCircle
10
-39.9264068712
20
-100.066017178
40
1
100
AcDbArc
50
180
51
270
0
ARC
5
429
100
AcDbEntity
8
0
6
ByLayer
62
256
370
-1
100
AcDbCircle
10
-50.8406204335
20
-105.308657865
40
3.41421356235
100
AcDbArc
50
0
51
45.0000000002
0
LINE
5
42A
100
AcDbEntity
8
0
6
ByLayer
62
256
370
-1
100
AcDbLine
10
-43.9264068712
20
-99.066017178
11
-43.9264068712
21
-100.693485953
0
ARC
5
42B
100
AcDbEntity
8
0
6
ByLayer
62
256
370
-1
100
AcDbCircle
10
-44.495796628
20
-100.693485953
40
0.569389756847
100
AcDbArc
50
220.86386677
51
360
0
CIRCLE
5
42C
100
AcDbEntity
8
0
6
ByLayer
62
256
370
-1
100
AcDbCircle
10
-42.4264068712
20
-106.066017178
40
2
0
ARC
5
42D
100
AcDbEntity
8
0
6
ByLayer
62
256
370
-1
100
AcDbCircle
10
-31.0624458405
20
-125.086832458
40
3.41421356239
100
AcDbArc
50
45.0000000002
51
90
0
ARC
5
42E
100
AcDbEntity
8
0
6
ByLayer
62
256
370
-1
100
AcDbCircle
10
-40.2340187157
20
-115.915259583
40
3.41421356235
100
AcDbArc
50
0
51
45.0000000002
0
CIRCLE
5
42F
100
AcDbEntity
8
0
6
ByLayer
62
256
370
-1
100
AcDbCircle
10
-31.8198051534
20
-116.672618896
40
2
0
ARC
5
430
100
AcDbEntity
8
0
6
ByLayer
62
256
370
-1
100
AcDbCircle
10
-20.4558441227
20
-135.693434176
40
3.41421356239
100
AcDbArc
50
45.0000000002
51
90
0
ARC
5
431
100
AcDbEntity
8
0
6
ByLayer
62
256
370
-1
100
AcDbCircle
10
-29.6274169979
20
-126.521861301
40
3.41421356235
100
AcDbArc
50
0
51
45.0000000002
0
CIRCLE
5
432
100
AcDbEntity
8
0
6
ByLayer
62
256
370
-1
100
AcDbCircle
10
-21.2132034356
20
-127.279220614
40
2
0
ARC
5
433
100
AcDbEntity
8
0
6
ByLayer
62
256
370
-1
100
AcDbCircle
10
-19.0208152801
20
-137.128463018
40
3.41421356235
100
AcDbArc
50
0
51
45.0000000002
0
CIRCLE
5
434
100
AcDbEntity
8
0
6
ByLayer
62
256
370
-1
100
AcDbCircle
10
-10.6066017178
20
-137.885822331
40
2
0
LINE
5
435
100
AcDbEntity
8
0
6
ByLayer
62
256
370
-1
100
AcDbLine
10
-57.6396103068
20
-88.0243866176
11
-55.533008589
21
-90.4594154602
0
LINE
5
436
100
AcDbEntity
8
0
6
ByLayer
62
256
370
-1
100
AcDbLine
10
-60.4680374315
20
-90.8528137424
11
-59.033008589
21
-92.2878425849
0
LINE
5
437
100
AcDbEntity
8
0
6
ByLayer
62
256
370
-1
100
AcDbLine
10
-47.033008589
20
-98.6309883354
11
-44.9264068712
21
-101.066017178
0
LINE
5
438
100
AcDbEntity
8
0
6
ByLayer
62
256
370
-1
100
AcDbLine
10
-49.8614357137
20
-101.45941546
11
-48.4264068712
21
-102.894444303
0
LINE
5
439
100
AcDbEntity
8
0
6
ByLayer
62
256
370
-1
100
AcDbLine
10
-39.2548339959
20
-112.066017178
11
-37.8198051534
21
-113.501046021
0
LINE
5
43A
100
AcDbEntity
8
0
6
ByLayer
62
256
370
-1
100
AcDbLine
10
-28.6482322781
20
-122.672618896
11
-27.2132034356
21
-124.107647738
0
LINE
5
43B
100
AcDbEntity
8
0
6
ByLayer
62
256
370
-1
100
AcDbLine
10
-18.0416305603
20
-133.279220614
11
-16.6066017178
21
-134.714249456
0
LINE
5
43C
100
AcDbEntity
8
0
6
ByLayer
62
256
370
-1
100
AcDbLine
10
-49.4264068712
20
-90.4594154602
11
-50.533008589
21
-90.4594154602
0
LINE
5
43D
100
AcDbEntity
8
0
6
ByLayer
62
256
370
-1
100
AcDbLine
10
-48.033008589
20
-91.8528137424
11
-48.033008589
21
-96.2167747731
0
LINE
5
43E
100
AcDbEntity
8
0
6
ByLayer
62
256
370
-1
100
AcDbLine
10
-38.8198051534
20
-101.066017178
11
-39.9264068712
21
-101.066017178
0
ARC
5
43F
100
AcDbEntity
8
0
6
ByLayer
62
256
370
-1
100
AcDbCircle
10
-34.0121933088
20
-106.823376491
40
3.41421356237
100
AcDbArc
50
180
51
225
0
LINE
5
440
100
AcDbEntity
8
0
6
ByLayer
62
256
370
-1
100
AcDbLine
10
-33.3198051534
20
-109.672618896
11
-30.3198051534
21
-109.672618896
0
LINE
5
441
100
AcDbEntity
8
0
6
ByLayer
62
256
370
-1
100
AcDbLine
10
-30.3198051534
20
-109.672618896
11
-30.3198051534
21
-110.672618896
0
ARC
5
442
100
AcDbEntity
8
0
6
ByLayer
62
256
370
-1
100
AcDbCircle
10
-29.3198051534
20
-110.672618896
40
1
100
AcDbArc
50
180
51
270
0
LINE
5
443
100
AcDbEntity
8
0
6
ByLayer
62
256
370
-1
100
AcDbLine
10
-33.3198051534
20
-109.672618896
11
-33.3198051534
21
-111.300087671
0
ARC
5
444
100
AcDbEntity
8
0
6
ByLayer
62
256
370
-1
100
AcDbCircle
10
-33.8891949102
20
-111.300087671
40
0.569389756847
100
AcDbArc
50
220.86386677
51
360
0
LINE
5
445
100
AcDbEntity
8
0
6
ByLayer
62
256
370
-1
100
AcDbLine
10
-36.4264068712
20
-109.237590053
11
-34.3198051534
21
-111.672618896
0
LINE
5
446
100
AcDbEntity
8
0
6
ByLayer
62
256
370
-1
100
AcDbLine
10
-37.4264068712
20
-102.45941546
11
-37.4264068712
21
-106.823376491
0
LINE
5
447
100
AcDbEntity
8
0
6
ByLayer
62
256
370
-1
100
AcDbLine
10
-28.2132034356
20
-111.672618896
11
-29.3198051534
21
-111.672618896
0
ARC
5
448
100
AcDbEntity
8
0
6
ByLayer
62
256
370
-1
100
AcDbCircle
10
-23.405591591
20
-117.429978209
40
3.41421356237
100
AcDbArc
50
180
51
225
0
LINE
5
449
100
AcDbEntity
8
0
6
ByLayer
62
256
370
-1
100
AcDbLine
10
-22.7132034356
20
-120.279220614
11
-19.7132034356
21
-120.279220614
0
LINE
5
44A
100
AcDbEntity
8
0
6
ByLayer
62
256
370
-1
100
AcDbLine
10
-19.7132034356
20
-120.279220614
11
-19.7132034356
21
-121.279220614
0
ARC
5
44B
100
AcDbEntity
8
0
6
ByLayer
62
256
370
-1
100
AcDbCircle
10
-18.7132034356
20
-121.279220614
40
1
100
AcDbArc
50
180
51
270
0
LINE
5
44C
100
AcDbEntity
8
0
6
ByLayer
62
256
370
-1
100
AcDbLine
10
-22.7132034356
20
-120.279220614
11
-22.7132034356
21
-121.906689388
0
ARC
5
44D
100
AcDbEntity
8
0
6
ByLayer
62
256
370
-1
100
AcDbCircle
10
-23.2825931924
20
-121.906689388
40
0.569389756847
100
AcDbArc
50
220.86386677
51
360
0
LINE
5
44E
100
AcDbEntity
8
0
6
ByLayer
62
256
370
-1
100
AcDbLine
10
-25.8198051534
20
-119.844191771
11
-23.7132034356
21
-122.279220614
0
LINE
5
44F
100
AcDbEntity
8
0
6
ByLayer
62
256
370
-1
100
AcDbLine
10
-26.8198051534
20
-113.066017178
11
-26.8198051534
21
-117.429978209
0
ARC
5
450
100
AcDbEntity
8
0
6
ByLayer
62
256
370
-1
100
AcDbCircle
10
-12.7989898732
20
-128.036579926
40
3.41421356237
100
AcDbArc
50
180
51
225
0
LINE
5
451
100
AcDbEntity
8
0
6
ByLayer
62
256
370
-1
100
AcDbLine
10
-12.1066017178
20
-130.885822331
11
-9.1066017178
21
-130.885822331
0
LINE
5
452
100
AcDbEntity
8
0
6
ByLayer
62
256
370
-1
100
AcDbLine
10
-9.1066017178
20
-130.885822331
11
-9.1066017178
21
-131.885822331
0
ARC
5
453
100
AcDbEntity
8
0
6
ByLayer
62
256
370
-1
100
AcDbCircle
10
-8.1066017178
20
-131.885822331
40
1
100
AcDbArc
50
180
51
270
0
LINE
5
454
100
AcDbEntity
8
0
6
ByLayer
62
256
370
-1
100
AcDbLine
10
-12.1066017178
20
-130.885822331
11
-12.1066017178
21
-132.513291106
0
ARC
5
455
100
AcDbEntity
8
0
6
ByLayer
62
256
370
-1
100
AcDbCircle
10
-12.6759914746
20
-132.513291106
40
0.569389756847
100
AcDbArc
50
220.86386677
51
360
0
LINE
5
456
100
AcDbEntity
8
0
6
ByLayer
62
256
370
-1
100
AcDbLine
10
-15.2132034356
20
-130.450793489
11
-13.1066017178
21
-132.885822331
0
LINE
5
457
100
AcDbEntity
8
0
6
ByLayer
62
256
370
-1
100
AcDbLine
10
-16.2132034356
20
-123.672618896
11
-16.2132034356
21
-128.036579926
0
LINE
5
458
100
AcDbEntity
8
0
6
ByLayer
62
256
370
-1
100
AcDbLine
10
-7
20
-132.885822331
11
-8.1066017178
21
-132.885822331
0
LINE
5
459
100
AcDbEntity
8
0
6
ByLayer
62
256
370
-1
100
AcDbLine
10
-18.7132034356
20
-122.279220614
11
-17.6066017178
21
-122.279220614
0
LINE
5
45A
100
AcDbEntity
8
0
6
ByLayer
62
256
370
-1
100
AcDbLine
10
-58.6396103068
20
-81.2462120246
11
-58.6396103068
21
-85.6101730553
0
LINE
5
45B
100
AcDbEntity
8
0
6
ByLayer
62
256
370
-1
100
AcDbLine
10
-60.033008589
20
-79.8528137424
11
-61.1396103068
21
-79.8528137424
0
LINE
5
45C
100
AcDbEntity
8
0
6
ByLayer
62
256
370
-1
100
AcDbLine
10
-58.033008589
20
-94.7020561473
11
-58.033008589
21
-99.066017178
0
LINE
5
45D
100
AcDbEntity
8
0
6
ByLayer
62
256
370
-1
100
AcDbLine
10
-56.6396103068
20
-100.45941546
11
-52.2756492761
21
-100.45941546
0
LINE
5
45E
100
AcDbEntity
8
0
6
ByLayer
62
256
370
-1
100
AcDbLine
10
-47.4264068712
20
-105.308657865
11
-47.4264068712
21
-109.672618896
0
LINE
5
45F
100
AcDbEntity
8
0
6
ByLayer
62
256
370
-1
100
AcDbLine
10
-46.033008589
20
-111.066017178
11
-41.6690475583
21
-111.066017178
0
LINE
5
460
100
AcDbEntity
8
0
6
ByLayer
62
256
370
-1
100
AcDbLine
10
-36.8198051534
20
-115.915259583
11
-36.8198051534
21
-120.279220614
0
LINE
5
461
100
AcDbEntity
8
0
6
ByLayer
62
256
370
-1
100
AcDbLine
10
-35.4264068712
20
-121.672618896
11
-31.0624458405
21
-121.672618896
0
LINE
5
462
100
AcDbEntity
8
0
6
ByLayer
62
256
370
-1
100
AcDbLine
10
-26.2132034356
20
-126.521861301
11
-26.2132034356
21
-130.885822331
0
LINE
5
463
100
AcDbEntity
8
0
6
ByLayer
62
256
370
-1
100
AcDbLine
10
-24.8198051534
20
-132.279220614
11
-20.4558441227
21
-132.279220614
0
ARC
5
464
100
AcDbEntity
8
0
6
ByLayer
62
256
370
-1
100
AcDbCircle
10
8.41421356237
20
-149.249783362
40
3.41421356237
100
AcDbArc
50
180
51
225
0
LINE
5
465
100
AcDbEntity
8
0
6
ByLayer
62
256
370
-1
100
AcDbLine
10
6
20
-151.663996924
11
3.17157287525
21
-154.492424049
0
ARC
5
466
100
AcDbEntity
8
0
6
ByLayer
62
256
370
-1
100
AcDbCircle
10
-9.84924240493
20
-146.300035894
40
3.41421356239
100
AcDbArc
50
45.0000000002
51
90
0
ARC
5
467
100
AcDbEntity
8
0
6
ByLayer
62
256
370
-1
100
AcDbCircle
10
-8.41421356235
20
-147.735064736
40
3.41421356235
100
AcDbArc
50
0
51
45.0000000002
0
LINE
5
468
100
AcDbEntity
8
0
6
ByLayer
62
256
370
-1
100
AcDbLine
10
-7.43502884255
20
-143.885822331
11
-6
21
-145.320851174
0
LINE
5
469
100
AcDbEntity
8
0
6
ByLayer
62
256
370
-1
100
AcDbLine
10
-15.6066017178
20
-137.128463018
11
-15.6066017178
21
-141.492424049
0
LINE
5
46A
100
AcDbEntity
8
0
6
ByLayer
62
256
370
-1
100
AcDbLine
10
-14.2132034356
20
-142.885822331
11
-9.84924240493
21
-142.885822331
0
ARC
5
46B
100
AcDbEntity
8
0
6
ByLayer
62
256
370
-1
100
AcDbCircle
10
-2.19238815543
20
-138.643181644
40
3.41421356237
100
AcDbArc
50
180
51
225
0
LINE
5
46C
100
AcDbEntity
8
0
6
ByLayer
62
256
370
-1
100
AcDbLine
10
-1.5
20
-141.492424049
11
1.5
21
-141.492424049
0
LINE
5
46D
100
AcDbEntity
8
0
6
ByLayer
62
256
370
-1
100
AcDbLine
10
1.5
20
-141.492424049
11
1.5
21
-142.492424049
0
ARC
5
46E
100
AcDbEntity
8
0
6
ByLayer
62
256
370
-1
100
AcDbCircle
10
2.5
20
-142.492424049
40
1
100
AcDbArc
50
180
51
270
0
LINE
5
46F
100
AcDbEntity
8
0
6
ByLayer
62
256
370
-1
100
AcDbLine
10
-1.5
20
-141.492424049
11
-1.5
21
-143.119892824
0
ARC
5
470
100
AcDbEntity
8
0
6
ByLayer
62
256
370
-1
100
AcDbCircle
10
-2.06938975685
20
-143.119892824
40
0.569389756847
100
AcDbArc
50
220.86386677
51
360
0
LINE
5
471
100
AcDbEntity
8
0
6
ByLayer
62
256
370
-1
100
AcDbLine
10
-4.6066017178
20
-141.057395207
11
-2.5
21
-143.492424049
0
LINE
5
472
100
AcDbEntity
8
0
6
ByLayer
62
256
370
-1
100
AcDbLine
10
-5.6066017178
20
-134.279220614
11
-5.6066017178
21
-138.643181644
0
LINE
5
473
100
AcDbEntity
8
0
6
ByLayer
62
256
370
-1
100
AcDbLine
10
3.6066017178
20
-143.492424049
11
2.5
21
-143.492424049
0
LINE
5
474
100
AcDbEntity
8
0
6
ByLayer
62
256
370
-1
100
AcDbLine
10
5
20
-144.885822331
11
5
21
-149.249783362
0
CIRCLE
5
475
100
AcDbEntity
8
0
6
ByLayer
62
256
370
-1
100
AcDbCircle
10
-1.24344978758e-13
20
-148.492424049
40
2
0
LINE
5
476
100
AcDbEntity
8
0
6
ByLayer
62
256
370
-1
100
AcDbLine
10
-75.7462120246
20
-67.2462120246
11
-72.7462120246
21
-67.2462120246
0
CIRCLE
5
477
100
AcDbEntity
8
0
6
ByLayer
62
256
370
-1
100
AcDbCircle
10
-74.2462120246
20
-74.2462120246
40
2
0
ARC
5
478
100
AcDbEntity
8
0
6
ByLayer
62
256
370
-1
100
AcDbCircle
10
-73.4888527117
20
-82.660425587
40
3.41421356239
100
AcDbArc
50
45.0000000002
51
90
0
LINE
5
479
100
AcDbEntity
8
0
6
ByLayer
62
256
370
-1
100
AcDbLine
10
-72.7462120246
20
-67.2462120246
11
-72.7462120246
21
-68.2462120246
0
ARC
5
47A
100
AcDbEntity
8
0
6
ByLayer
62
256
370
-1
100
AcDbCircle
10
-71.7462120246
20
-68.2462120246
40
1
100
AcDbArc
50
180
51
270
0
ARC
5
47B
100
AcDbEntity
8
0
6
ByLayer
62
256
370
-1
100
AcDbCircle
10
-78.2462120246
20
-70.2462120246
40
1
100
AcDbArc
50
90
51
180
0
LINE
5
47C
100
AcDbEntity
8
0
6
ByLayer
62
256
370
-1
100
AcDbLine
10
-76.7462120246
20
-69.2462120246
11
-78.2462120246
21
-69.2462120246
0
ARC
5
47D
100
AcDbEntity
8
0
6
ByLayer
62
256
370
-1
100
AcDbCircle
10
-76.7462120246
20
-68.2462120246
40
1
100
AcDbArc
50
270
51
0
0
LINE
5
47E
100
AcDbEntity
8
0
6
ByLayer
62
256
370
-1
100
AcDbLine
10
-75.7462120246
20
-67.2462120246
11
-75.7462120246
21
-68.2462117862
0
ARC
5
47F
100
AcDbEntity
8
0
6
ByLayer
62
256
370
-1
100
AcDbCircle
10
-72.0538238691
20
-84.0954544295
40
3.41421356235
100
AcDbArc
50
0
51
45.0000000002
0
LINE
5
480
100
AcDbEntity
8
0
6
ByLayer
62
256
370
-1
100
AcDbLine
10
-65.1396103068
20
-77.8528137424
11
-65.1396103068
21
-79.4802825173
0
ARC
5
481
100
AcDbEntity
8
0
6
ByLayer
62
256
370
-1
100
AcDbCircle
10
-65.7090000636
20
-79.4802825173
40
0.569389756847
100
AcDbArc
50
220.86386677
51
360
0
LINE
5
482
100
AcDbEntity
8
0
6
ByLayer
62
256
370
-1
100
AcDbLine
10
-71.0746391493
20
-80.2462120246
11
-69.6396103068
21
-81.6812408671
0
LINE
5
483
100
AcDbEntity
8
0
6
ByLayer
62
256
370
-1
100
AcDbLine
10
-68.6396103068
20
-84.0954544295
11
-68.6396103068
21
-88.4594154602
0
LINE
5
484
100
AcDbEntity
8
0
6
ByLayer
62
256
370
-1
100
AcDbLine
10
-67.2462120246
20
-89.8528137424
11
-62.8822509939
21
-89.8528137424
0
LINE
5
485
100
AcDbEntity
8
0
6
ByLayer
62
256
370
-1
100
AcDbLine
10
-70.6396103068
20
-69.2462120246
11
-71.7462120246
21
-69.2462120246
0
LINE
5
486
100
AcDbEntity
8
0
6
ByLayer
62
256
370
-1
100
AcDbLine
10
-69.2462120246
20
-70.6396103068
11
-69.2462120246
21
-75.0035713375
0
ARC
5
487
100
AcDbEntity
8
0
6
ByLayer
62
256
370
-1
100
AcDbCircle
10
-65.4556134948
20
-75.0035713375
40
3.79059852974
100
AcDbArc
50
180
51
220.86386677
0
LINE
5
488
100
AcDbEntity
8
0
6
ByLayer
62
256
370
-1
100
AcDbLine
10
-68.3223151433
20
-77.4836235289
11
-66.1396103068
21
-79.8528137424
0
LINE
5
489
100
AcDbEntity
8
0
6
ByLayer
62
256
370
-1
100
AcDbLine
10
-5
20
-147.735064736
11
-5
21
-152.492424049
0
LINE
5
48A
100
AcDbEntity
8
0
6
ByLayer
62
256
370
-1
100
AcDbLine
10
-79.2462120246
20
-70.2462120246
11
-79.2462120246
21
-77.8528137424
0
LINE
5
48B
100
AcDbEntity
8
0
6
ByLayer
62
256
370
-1
100
AcDbLine
10
-77.8528137424
20
-79.2462120246
11
-73.4888527117
21
-79.2462120246
0
ARC
5
48C
100
AcDbEntity
8
0
6
ByLayer
62
256
370
-1
100
AcDbCircle
10
-77.8528137424
20
-77.8528137424
40
1.3933982822
100
AcDbArc
50
180
51
270
0
ARC
5
48D
100
AcDbEntity
8
0
6
ByLayer
62
256
370
-1
100
AcDbCircle
10
-67.2462120246
20
-88.4594154602
40
1.3933982822
100
AcDbArc
50
180
51
270
0
ARC
5
48E
100
AcDbEntity
8
0
6
ByLayer
62
256
370
-1
100
AcDbCircle
10
-56.6396103068
20
-99.066017178
40
1.3933982822
100
AcDbArc
50
180
51
270
0
ARC
5
48F
100
AcDbEntity
8
0
6
ByLayer
62
256
370
-1
100
AcDbCircle
10
-46.033008589
20
-109.672618896
40
1.3933982822
100
AcDbArc
50
180
51
270
0
ARC
5
490
100
AcDbEntity
8
0
6
ByLayer
62
256
370
-1
100
AcDbCircle
10
-35.4264068712
20
-120.279220614
40
1.3933982822
100
AcDbArc
50
180
51
270
0
ARC
5
491
100
AcDbEntity
8
0
6
ByLayer
62
256
370
-1
100
AcDbCircle
10
-24.8198051534
20
-130.885822331
40
1.3933982822
100
AcDbArc
50
180
51
270
0
ARC
5
492
100
AcDbEntity
8
0
6
ByLayer
62
256
370
-1
100
AcDbCircle
10
-14.2132034356
20
-141.492424049
40
1.3933982822
100
AcDbArc
50
180
51
270
0
ARC
5
493
100
AcDbEntity
8
0
6
ByLayer
62
256
370
-1
100
AcDbCircle
10
-3.6066017178
20
-152.492424049
40
1.3933982822
100
AcDbArc
50
180
51
270
0
LINE
5
494
100
AcDbEntity
8
0
6
ByLayer
62
256
370
-1
100
AcDbLine
10
-3.6066017178
20
-153.885822331
11
2.34843734131
21
-153.885822331
0
ARC
5
495
100
AcDbEntity
8
0
6
ByLayer
62
256
370
-1
100
AcDbCircle
10
0.757359312871
20
-156.906637612
40
3.41421356239
100
AcDbArc
50
45.0000000002
51
62.2240065982
0
LINE
5
496
100
AcDbEntity
8
1
6
ByLayer
62
256
370
-1
100
AcDbLine
10
9.1066017178
20
-3.6066017178
11
12.1066017178
21
-3.6066017178
0
LINE
5
497
100
AcDbEntity
8
1
6
ByLayer
62
256
370
-1
100
AcDbLine
10
9.1066017178
20
-3.6066017178
11
9.1066017178
21
-6.6066017178
0
LINE
5
498
100
AcDbEntity
8
1
6
ByLayer
62
256
370
-1
100
AcDbLine
10
12.1066017178
20
-3.6066017178
11
12.1066017178
21
-6.6066017178
0
LINE
5
499
100
AcDbEntity
8
1
6
ByLayer
62
256
370
-1
100
AcDbLine
10
9.1066017178
20
-6.6066017178
11
10.0066017178
21
-6.6066017178
0
LINE
5
49A
100
AcDbEntity
8
1
6
ByLayer
62
256
370
-1
100
AcDbLine
10
11.2066017178
20
-5.6066017178
11
11.2066017178
21
-6.6066017178
0
LINE
5
49B
100
AcDbEntity
8
1
6
ByLayer
62
256
370
-1
100
AcDbLine
10
11.2066017178
20
-6.6066017178
11
12.1066017178
21
-6.6066017178
0
LINE
5
49C
100
AcDbEntity
8
1
6
ByLayer
62
256
370
-1
100
AcDbLine
10
11.2066017178
20
-5.6066017178
11
10.0066017178
21
-5.6066017178
0
LINE
5
49D
100
AcDbEntity
8
1
6
ByLayer
62
256
370
-1
100
AcDbLine
10
10.0066017178
20
-5.6066017178
11
10.0066017178
21
-6.6066017178
0
LINE
5
49E
100
AcDbEntity
8
1
6
ByLayer
62
256
370
-1
100
AcDbLine
10
19.7132034356
20
-14.2132034356
11
22.7132034356
21
-14.2132034356
0
LINE
5
49F
100
AcDbEntity
8
1
6
ByLayer
62
256
370
-1
100
AcDbLine
10
19.7132034356
20
-14.2132034356
11
19.7132034356
21
-17.2132034356
0
LINE
5
4A0
100
AcDbEntity
8
1
6
ByLayer
62
256
370
-1
100
AcDbLine
10
22.7132034356
20
-14.2132034356
11
22.7132034356
21
-17.2132034356
0
LINE
5
4A1
100
AcDbEntity
8
1
6
ByLayer
62
256
370
-1
100
AcDbLine
10
19.7132034356
20
-17.2132034356
11
20.6132034356
21
-17.2132034356
0
LINE
5
4A2
100
AcDbEntity
8
1
6
ByLayer
62
256
370
-1
100
AcDbLine
10
21.8132034356
20
-16.2132034356
11
21.8132034356
21
-17.2132034356
0
LINE
5
4A3
100
AcDbEntity
8
1
6
ByLayer
62
256
370
-1
100
AcDbLine
10
21.8132034356
20
-17.2132034356
11
22.7132034356
21
-17.2132034356
0
LINE
5
4A4
100
AcDbEntity
8
1
6
ByLayer
62
256
370
-1
100
AcDbLine
10
21.8132034356
20
-16.2132034356
11
20.6132034356
21
-16.2132034356
0
LINE
5
4A5
100
AcDbEntity
8
1
6
ByLayer
62
256
370
-1
100
AcDbLine
10
20.6132034356
20
-16.2132034356
11
20.6132034356
21
-17.2132034356
0
LINE
5
4A6
100
AcDbEntity
8
1
6
ByLayer
62
256
370
-1
100
AcDbLine
10
30.3198051534
20
-24.8198051534
11
33.3198051534
21
-24.8198051534
0
LINE
5
4A7
100
AcDbEntity
8
1
6
ByLayer
62
256
370
-1
100
AcDbLine
10
30.3198051534
20
-24.8198051534
11
30.3198051534
21
-27.8198051534
0
LINE
5
4A8
100
AcDbEntity
8
1
6
ByLayer
62
256
370
-1
100
AcDbLine
10
33.3198051534
20
-24.8198051534
11
33.3198051534
21
-27.8198051534
0
LINE
5
4A9
100
AcDbEntity
8
1
6
ByLayer
62
256
370
-1
100
AcDbLine
10
30.3198051534
20
-27.8198051534
11
31.2198051534
21
-27.8198051534
0
LINE
5
4AA
100
AcDbEntity
8
1
6
ByLayer
62
256
370
-1
100
AcDbLine
10
32.4198051534
20
-26.8198051534
11
32.4198051534
21
-27.8198051534
0
LINE
5
4AB
100
AcDbEntity
8
1
6
ByLayer
62
256
370
-1
100
AcDbLine
10
32.4198051534
20
-27.8198051534
11
33.3198051534
21
-27.8198051534
0
LINE
5
4AC
100
AcDbEntity
8
1
6
ByLayer
62
256
370
-1
100
AcDbLine
10
32.4198051534
20
-26.8198051534
11
31.2198051534
21
-26.8198051534
0
LINE
5
4AD
100
AcDbEntity
8
1
6
ByLayer
62
256
370
-1
100
AcDbLine
10
31.2198051534
20
-26.8198051534
11
31.2198051534
21
-27.8198051534
0
LINE
5
4AE
100
AcDbEntity
8
1
6
ByLayer
62
256
370
-1
100
AcDbLine
10
40.9264068712
20
-35.4264068712
11
43.9264068712
21
-35.4264068712
0
LINE
5
4AF
100
AcDbEntity
8
1
6
ByLayer
62
256
370
-1
100
AcDbLine
10
40.9264068712
20
-35.4264068712
11
40.9264068712
21
-38.4264068712
0
LINE
5
4B0
100
AcDbEntity
8
1
6
ByLayer
62
256
370
-1
100
AcDbLine
10
43.9264068712
20
-35.4264068712
11
43.9264068712
21
-38.4264068712
0
LINE
5
4B1
100
AcDbEntity
8
1
6
ByLayer
62
256
370
-1
100
AcDbLine
10
40.9264068712
20
-38.4264068712
11
41.8264068712
21
-38.4264068712
0
LINE
5
4B2
100
AcDbEntity
8
1
6
ByLayer
62
256
370
-1
100
AcDbLine
10
43.0264068712
20
-37.4264068712
11
43.0264068712
21
-38.4264068712
0
LINE
5
4B3
100
AcDbEntity
8
1
6
ByLayer
62
256
370
-1
100
AcDbLine
10
43.0264068712
20
-38.4264068712
11
43.9264068712
21
-38.4264068712
0
LINE
5
4B4
100
AcDbEntity
8
1
6
ByLayer
62
256
370
-1
100
AcDbLine
10
43.0264068712
20
-37.4264068712
11
41.8264068712
21
-37.4264068712
0
LINE
5
4B5
100
AcDbEntity
8
1
6
ByLayer
62
256
370
-1
100
AcDbLine
10
41.8264068712
20
-37.4264068712
11
41.8264068712
21
-38.4264068712
0
LINE
5
4B6
100
AcDbEntity
8
1
6
ByLayer
62
256
370
-1
100
AcDbLine
10
51.533008589
20
-46.033008589
11
54.533008589
21
-46.033008589
0
LINE
5
4B7
100
AcDbEntity
8
1
6
ByLayer
62
256
370
-1
100
AcDbLine
10
51.533008589
20
-46.033008589
11
51.533008589
21
-49.033008589
0
LINE
5
4B8
100
AcDbEntity
8
1
6
ByLayer
62
256
370
-1
100
AcDbLine
10
54.533008589
20
-46.033008589
11
54.533008589
21
-49.033008589
0
LINE
5
4B9
100
AcDbEntity
8
1
6
ByLayer
62
256
370
-1
100
AcDbLine
10
51.533008589
20
-49.033008589
11
52.433008589
21
-49.033008589
0
LINE
5
4BA
100
AcDbEntity
8
1
6
ByLayer
62
256
370
-1
100
AcDbLine
10
53.633008589
20
-48.033008589
11
53.633008589
21
-49.033008589
0
LINE
5
4BB
100
AcDbEntity
8
1
6
ByLayer
62
256
370
-1
100
AcDbLine
10
53.633008589
20
-49.033008589
11
54.533008589
21
-49.033008589
0
LINE
5
4BC
100
AcDbEntity
8
1
6
ByLayer
62
256
370
-1
100
AcDbLine
10
53.633008589
20
-48.033008589
11
52.433008589
21
-48.033008589
0
LINE
5
4BD
100
AcDbEntity
8
1
6
ByLayer
62
256
370
-1
100
AcDbLine
10
52.433008589
20
-48.033008589
11
52.433008589
21
-49.033008589
0
LINE
5
4BE
100
AcDbEntity
8
1
6
ByLayer
62
256
370
-1
100
AcDbLine
10
62.1396103068
20
-56.6396103068
11
65.1396103068
21
-56.6396103068
0
LINE
5
4BF
100
AcDbEntity
8
1
6
ByLayer
62
256
370
-1
100
AcDbLine
10
62.1396103068
20
-56.6396103068
11
62.1396103068
21
-59.6396103068
0
LINE
5
4C0
100
AcDbEntity
8
1
6
ByLayer
62
256
370
-1
100
AcDbLine
10
65.1396103068
20
-56.6396103068
11
65.1396103068
21
-59.6396103068
0
LINE
5
4C1
100
AcDbEntity
8
1
6
ByLayer
62
256
370
-1
100
AcDbLine
10
62.1396103068
20
-59.6396103068
11
63.0396103068
21
-59.6396103068
0
LINE
5
4C2
100
AcDbEntity
8
1
6
ByLayer
62
256
370
-1
100
AcDbLine
10
64.2396103068
20
-58.6396103068
11
64.2396103068
21
-59.6396103068
0
LINE
5
4C3
100
AcDbEntity
8
1
6
ByLayer
62
256
370
-1
100
AcDbLine
10
64.2396103068
20
-59.6396103068
11
65.1396103068
21
-59.6396103068
0
LINE
5
4C4
100
AcDbEntity
8
1
6
ByLayer
62
256
370
-1
100
AcDbLine
10
64.2396103068
20
-58.6396103068
11
63.0396103068
21
-58.6396103068
0
LINE
5
4C5
100
AcDbEntity
8
1
6
ByLayer
62
256
370
-1
100
AcDbLine
10
63.0396103068
20
-58.6396103068
11
63.0396103068
21
-59.6396103068
0
LINE
5
4C6
100
AcDbEntity
8
1
6
ByLayer
62
256
370
-1
100
AcDbLine
10
72.7462120246
20
-67.2462120246
11
75.7462120246
21
-67.2462120246
0
LINE
5
4C7
100
AcDbEntity
8
1
6
ByLayer
62
256
370
-1
100
AcDbLine
10
72.7462120246
20
-67.2462120246
11
72.7462120246
21
-70.2462120246
0
LINE
5
4C8
100
AcDbEntity
8
1
6
ByLayer
62
256
370
-1
100
AcDbLine
10
75.7462120246
20
-67.2462120246
11
75.7462120246
21
-70.2462120246
0
LINE
5
4C9
100
AcDbEntity
8
1
6
ByLayer
62
256
370
-1
100
AcDbLine
10
72.7462120246
20
-70.2462120246
11
73.6462120246
21
-70.2462120246
0
LINE
5
4CA
100
AcDbEntity
8
1
6
ByLayer
62
256
370
-1
100
AcDbLine
10
74.8462120246
20
-69.2462120246
11
74.8462120246
21
-70.2462120246
0
LINE
5
4CB
100
AcDbEntity
8
1
6
ByLayer
62
256
370
-1
100
AcDbLine
10
74.8462120246
20
-70.2462120246
11
75.7462120246
21
-70.2462120246
0
LINE
5
4CC
100
AcDbEntity
8
1
6
ByLayer
62
256
370
-1
100
AcDbLine
10
74.8462120246
20
-69.2462120246
11
73.6462120246
21
-69.2462120246
0
LINE
5
4CD
100
AcDbEntity
8
1
6
ByLayer
62
256
370
-1
100
AcDbLine
10
73.6462120246
20
-69.2462120246
11
73.6462120246
21
-70.2462120246
0
LINE
5
4CE
100
AcDbEntity
8
1
6
ByLayer
62
256
370
-1
100
AcDbLine
10
-12.1066017178
20
-3.6066017178
11
-9.1066017178
21
-3.6066017178
0
LINE
5
4CF
100
AcDbEntity
8
1
6
ByLayer
62
256
370
-1
100
AcDbLine
10
-12.1066017178
20
-3.6066017178
11
-12.1066017178
21
-6.6066017178
0
LINE
5
4D0
100
AcDbEntity
8
1
6
ByLayer
62
256
370
-1
100
AcDbLine
10
-9.1066017178
20
-3.6066017178
11
-9.1066017178
21
-6.6066017178
0
LINE
5
4D1
100
AcDbEntity
8
1
6
ByLayer
62
256
370
-1
100
AcDbLine
10
-12.1066017178
20
-6.6066017178
11
-11.2066017178
21
-6.6066017178
0
LINE
5
4D2
100
AcDbEntity
8
1
6
ByLayer
62
256
370
-1
100
AcDbLine
10
-10.0066017178
20
-5.6066017178
11
-10.0066017178
21
-6.6066017178
0
LINE
5
4D3
100
AcDbEntity
8
1
6
ByLayer
62
256
370
-1
100
AcDbLine
10
-10.0066017178
20
-6.6066017178
11
-9.1066017178
21
-6.6066017178
0
LINE
5
4D4
100
AcDbEntity
8
1
6
ByLayer
62
256
370
-1
100
AcDbLine
10
-10.0066017178
20
-5.6066017178
11
-11.2066017178
21
-5.6066017178
0
LINE
5
4D5
100
AcDbEntity
8
1
6
ByLayer
62
256
370
-1
100
AcDbLine
10
-11.2066017178
20
-5.6066017178
11
-11.2066017178
21
-6.6066017178
0
LINE
5
4D6
100
AcDbEntity
8
1
6
ByLayer
62
256
370
-1
100
AcDbLine
10
-1.5
20
-14.2132034356
11
1.5
21
-14.2132034356
0
LINE
5
4D7
100
AcDbEntity
8
1
6
ByLayer
62
256
370
-1
100
AcDbLine
10
-1.5
20
-14.2132034356
11
-1.5
21
-17.2132034356
0
LINE
5
4D8
100
AcDbEntity
8
1
6
ByLayer
62
256
370
-1
100
AcDbLine
10
1.5
20
-14.2132034356
11
1.5
21
-17.2132034356
0
LINE
5
4D9
100
AcDbEntity
8
1
6
ByLayer
62
256
370
-1
100
AcDbLine
10
-1.5
20
-17.2132034356
11
-0.6
21
-17.2132034356
0
LINE
5
4DA
100
AcDbEntity
8
1
6
ByLayer
62
256
370
-1
100
AcDbLine
10
0.6
20
-16.2132034356
11
0.6
21
-17.2132034356
0
LINE
5
4DB
100
AcDbEntity
8
1
6
ByLayer
62
256
370
-1
100
AcDbLine
10
0.6
20
-17.2132034356
11
1.5
21
-17.2132034356
0
LINE
5
4DC
100
AcDbEntity
8
1
6
ByLayer
62
256
370
-1
100
AcDbLine
10
0.6
20
-16.2132034356
11
-0.6
21
-16.2132034356
0
LINE
5
4DD
100
AcDbEntity
8
1
6
ByLayer
62
256
370
-1
100
AcDbLine
10
-0.6
20
-16.2132034356
11
-0.6
21
-17.2132034356
0
LINE
5
4DE
100
AcDbEntity
8
1
6
ByLayer
62
256
370
-1
100
AcDbLine
10
9.1066017178
20
-24.8198051534
11
12.1066017178
21
-24.8198051534
0
LINE
5
4DF
100
AcDbEntity
8
1
6
ByLayer
62
256
370
-1
100
AcDbLine
10
9.1066017178
20
-24.8198051534
11
9.1066017178
21
-27.8198051534
0
LINE
5
4E0
100
AcDbEntity
8
1
6
ByLayer
62
256
370
-1
100
AcDbLine
10
12.1066017178
20
-24.8198051534
11
12.1066017178
21
-27.8198051534
0
LINE
5
4E1
100
AcDbEntity
8
1
6
ByLayer
62
256
370
-1
100
AcDbLine
10
9.1066017178
20
-27.8198051534
11
10.0066017178
21
-27.8198051534
0
LINE
5
4E2
100
AcDbEntity
8
1
6
ByLayer
62
256
370
-1
100
AcDbLine
10
11.2066017178
20
-26.8198051534
11
11.2066017178
21
-27.8198051534
0
LINE
5
4E3
100
AcDbEntity
8
1
6
ByLayer
62
256
370
-1
100
AcDbLine
10
11.2066017178
20
-27.8198051534
11
12.1066017178
21
-27.8198051534
0
LINE
5
4E4
100
AcDbEntity
8
1
6
ByLayer
62
256
370
-1
100
AcDbLine
10
11.2066017178
20
-26.8198051534
11
10.0066017178
21
-26.8198051534
0
LINE
5
4E5
100
AcDbEntity
8
1
6
ByLayer
62
256
370
-1
100
AcDbLine
10
10.0066017178
20
-26.8198051534
11
10.0066017178
21
-27.8198051534
0
LINE
5
4E6
100
AcDbEntity
8
1
6
ByLayer
62
256
370
-1
100
AcDbLine
10
19.7132034356
20
-35.4264068712
11
22.7132034356
21
-35.4264068712
0
LINE
5
4E7
100
AcDbEntity
8
1
6
ByLayer
62
256
370
-1
100
AcDbLine
10
19.7132034356
20
-35.4264068712
11
19.7132034356
21
-38.4264068712
0
LINE
5
4E8
100
AcDbEntity
8
1
6
ByLayer
62
256
370
-1
100
AcDbLine
10
22.7132034356
20
-35.4264068712
11
22.7132034356
21
-38.4264068712
0
LINE
5
4E9
100
AcDbEntity
8
1
6
ByLayer
62
256
370
-1
100
AcDbLine
10
19.7132034356
20
-38.4264068712
11
20.6132034356
21
-38.4264068712
0
LINE
5
4EA
100
AcDbEntity
8
1
6
ByLayer
62
256
370
-1
100
AcDbLine
10
21.8132034356
20
-37.4264068712
11
21.8132034356
21
-38.4264068712
0
LINE
5
4EB
100
AcDbEntity
8
1
6
ByLayer
62
256
370
-1
100
AcDbLine
10
21.8132034356
20
-38.4264068712
11
22.7132034356
21
-38.4264068712
0
LINE
5
4EC
100
AcDbEntity
8
1
6
ByLayer
62
256
370
-1
100
AcDbLine
10
21.8132034356
20
-37.4264068712
11
20.6132034356
21
-37.4264068712
0
LINE
5
4ED
100
AcDbEntity
8
1
6
ByLayer
62
256
370
-1
100
AcDbLine
10
20.6132034356
20
-37.4264068712
11
20.6132034356
21
-38.4264068712
0
LINE
5
4EE
100
AcDbEntity
8
1
6
ByLayer
62
256
370
-1
100
AcDbLine
10
30.3198051534
20
-46.033008589
11
33.3198051534
21
-46.033008589
0
LINE
5
4EF
100
AcDbEntity
8
1
6
ByLayer
62
256
370
-1
100
AcDbLine
10
30.3198051534
20
-46.033008589
11
30.3198051534
21
-49.033008589
0
LINE
5
4F0
100
AcDbEntity
8
1
6
ByLayer
62
256
370
-1
100
AcDbLine
10
33.3198051534
20
-46.033008589
11
33.3198051534
21
-49.033008589
0
LINE
5
4F1
100
AcDbEntity
8
1
6
ByLayer
62
256
370
-1
100
AcDbLine
10
30.3198051534
20
-49.033008589
11
31.2198051534
21
-49.033008589
0
LINE
5
4F2
100
AcDbEntity
8
1
6
ByLayer
62
256
370
-1
100
AcDbLine
10
32.4198051534
20
-48.033008589
11
32.4198051534
21
-49.033008589
0
LINE
5
4F3
100
AcDbEntity
8
1
6
ByLayer
62
256
370
-1
100
AcDbLine
10
32.4198051534
20
-49.033008589
11
33.3198051534
21
-49.033008589
0
LINE
5
4F4
100
AcDbEntity
8
1
6
ByLayer
62
256
370
-1
100
AcDbLine
10
32.4198051534
20
-48.033008589
11
31.2198051534
21
-48.033008589
0
LINE
5
4F5
100
AcDbEntity
8
1
6
ByLayer
62
256
370
-1
100
AcDbLine
10
31.2198051534
20
-48.033008589
11
31.2198051534
21
-49.033008589
0
LINE
5
4F6
100
AcDbEntity
8
1
6
ByLayer
62
256
370
-1
100
AcDbLine
10
40.9264068712
20
-56.6396103068
11
43.9264068712
21
-56.6396103068
0
LINE
5
4F7
100
AcDbEntity
8
1
6
ByLayer
62
256
370
-1
100
AcDbLine
10
40.9264068712
20
-56.6396103068
11
40.9264068712
21
-59.6396103068
0
LINE
5
4F8
100
AcDbEntity
8
1
6
ByLayer
62
256
370
-1
100
AcDbLine
10
43.9264068712
20
-56.6396103068
11
43.9264068712
21
-59.6396103068
0
LINE
5
4F9
100
AcDbEntity
8
1
6
ByLayer
62
256
370
-1
100
AcDbLine
10
40.9264068712
20
-59.6396103068
11
41.8264068712
21
-59.6396103068
0
LINE
5
4FA
100
AcDbEntity
8
1
6
ByLayer
62
256
370
-1
100
AcDbLine
10
43.0264068712
20
-58.6396103068
11
43.0264068712
21
-59.6396103068
0
LINE
5
4FB
100
AcDbEntity
8
1
6
ByLayer
62
256
370
-1
100
AcDbLine
10
43.0264068712
20
-59.6396103068
11
43.9264068712
21
-59.6396103068
0
LINE
5
4FC
100
AcDbEntity
8
1
6
ByLayer
62
256
370
-1
100
AcDbLine
10
43.0264068712
20
-58.6396103068
11
41.8264068712
21
-58.6396103068
0
LINE
5
4FD
100
AcDbEntity
8
1
6
ByLayer
62
256
370
-1
100
AcDbLine
10
41.8264068712
20
-58.6396103068
11
41.8264068712
21
-59.6396103068
0
LINE
5
4FE
100
AcDbEntity
8
1
6
ByLayer
62
256
370
-1
100
AcDbLine
10
51.533008589
20
-67.2462120246
11
54.533008589
21
-67.2462120246
0
LINE
5
4FF
100
AcDbEntity
8
1
6
ByLayer
62
256
370
-1
100
AcDbLine
10
51.533008589
20
-67.2462120246
11
51.533008589
21
-70.2462120246
0
LINE
5
500
100
AcDbEntity
8
1
6
ByLayer
62
256
370
-1
100
AcDbLine
10
54.533008589
20
-67.2462120246
11
54.533008589
21
-70.2462120246
0
LINE
5
501
100
AcDbEntity
8
1
6
ByLayer
62
256
370
-1
100
AcDbLine
10
51.533008589
20
-70.2462120246
11
52.433008589
21
-70.2462120246
0
LINE
5
502
100
AcDbEntity
8
1
6
ByLayer
62
256
370
-1
100
AcDbLine
10
53.633008589
20
-69.2462120246
11
53.633008589
21
-70.2462120246
0
LINE
5
503
100
AcDbEntity
8
1
6
ByLayer
62
256
370
-1
100
AcDbLine
10
53.633008589
20
-70.2462120246
11
54.533008589
21
-70.2462120246
0
LINE
5
504
100
AcDbEntity
8
1
6
ByLayer
62
256
370
-1
100
AcDbLine
10
53.633008589
20
-69.2462120246
11
52.433008589
21
-69.2462120246
0
LINE
5
505
100
AcDbEntity
8
1
6
ByLayer
62
256
370
-1
100
AcDbLine
10
52.433008589
20
-69.2462120246
11
52.433008589
21
-70.2462120246
0
LINE
5
506
100
AcDbEntity
8
1
6
ByLayer
62
256
370
-1
100
AcDbLine
10
62.1396103068
20
-77.8528137424
11
65.1396103068
21
-77.8528137424
0
LINE
5
507
100
AcDbEntity
8
1
6
ByLayer
62
256
370
-1
100
AcDbLine
10
62.1396103068
20
-77.8528137424
11
62.1396103068
21
-80.8528137424
0
LINE
5
508
100
AcDbEntity
8
1
6
ByLayer
62
256
370
-1
100
AcDbLine
10
65.1396103068
20
-77.8528137424
11
65.1396103068
21
-80.8528137424
0
LINE
5
509
100
AcDbEntity
8
1
6
ByLayer
62
256
370
-1
100
AcDbLine
10
62.1396103068
20
-80.8528137424
11
63.0396103068
21
-80.8528137424
0
LINE
5
50A
100
AcDbEntity
8
1
6
ByLayer
62
256
370
-1
100
AcDbLine
10
64.2396103068
20
-79.8528137424
11
64.2396103068
21
-80.8528137424
0
LINE
5
50B
100
AcDbEntity
8
1
6
ByLayer
62
256
370
-1
100
AcDbLine
10
64.2396103068
20
-80.8528137424
11
65.1396103068
21
-80.8528137424
0
LINE
5
50C
100
AcDbEntity
8
1
6
ByLayer
62
256
370
-1
100
AcDbLine
10
64.2396103068
20
-79.8528137424
11
63.0396103068
21
-79.8528137424
0
LINE
5
50D
100
AcDbEntity
8
1
6
ByLayer
62
256
370
-1
100
AcDbLine
10
63.0396103068
20
-79.8528137424
11
63.0396103068
21
-80.8528137424
0
LINE
5
50E
100
AcDbEntity
8
1
6
ByLayer
62
256
370
-1
100
AcDbLine
10
-22.7132034356
20
-14.2132034356
11
-19.7132034356
21
-14.2132034356
0
LINE
5
50F
100
AcDbEntity
8
1
6
ByLayer
62
256
370
-1
100
AcDbLine
10
-22.7132034356
20
-14.2132034356
11
-22.7132034356
21
-17.2132034356
0
LINE
5
510
100
AcDbEntity
8
1
6
ByLayer
62
256
370
-1
100
AcDbLine
10
-19.7132034356
20
-14.2132034356
11
-19.7132034356
21
-17.2132034356
0
LINE
5
511
100
AcDbEntity
8
1
6
ByLayer
62
256
370
-1
100
AcDbLine
10
-22.7132034356
20
-17.2132034356
11
-21.8132034356
21
-17.2132034356
0
LINE
5
512
100
AcDbEntity
8
1
6
ByLayer
62
256
370
-1
100
AcDbLine
10
-20.6132034356
20
-16.2132034356
11
-20.6132034356
21
-17.2132034356
0
LINE
5
513
100
AcDbEntity
8
1
6
ByLayer
62
256
370
-1
100
AcDbLine
10
-20.6132034356
20
-17.2132034356
11
-19.7132034356
21
-17.2132034356
0
LINE
5
514
100
AcDbEntity
8
1
6
ByLayer
62
256
370
-1
100
AcDbLine
10
-20.6132034356
20
-16.2132034356
11
-21.8132034356
21
-16.2132034356
0
LINE
5
515
100
AcDbEntity
8
1
6
ByLayer
62
256
370
-1
100
AcDbLine
10
-21.8132034356
20
-16.2132034356
11
-21.8132034356
21
-17.2132034356
0
LINE
5
516
100
AcDbEntity
8
1
6
ByLayer
62
256
370
-1
100
AcDbLine
10
-12.1066017178
20
-24.8198051534
11
-9.1066017178
21
-24.8198051534
0
LINE
5
517
100
AcDbEntity
8
1
6
ByLayer
62
256
370
-1
100
AcDbLine
10
-12.1066017178
20
-24.8198051534
11
-12.1066017178
21
-27.8198051534
0
LINE
5
518
100
AcDbEntity
8
1
6
ByLayer
62
256
370
-1
100
AcDbLine
10
-9.1066017178
20
-24.8198051534
11
-9.1066017178
21
-27.8198051534
0
LINE
5
519
100
AcDbEntity
8
1
6
ByLayer
62
256
370
-1
100
AcDbLine
10
-12.1066017178
20
-27.8198051534
11
-11.2066017178
21
-27.8198051534
0
LINE
5
51A
100
AcDbEntity
8
1
6
ByLayer
62
256
370
-1
100
AcDbLine
10
-10.0066017178
20
-26.8198051534
11
-10.0066017178
21
-27.8198051534
0
LINE
5
51B
100
AcDbEntity
8
1
6
ByLayer
62
256
370
-1
100
AcDbLine
10
-10.0066017178
20
-27.8198051534
11
-9.1066017178
21
-27.8198051534
0
LINE
5
51C
100
AcDbEntity
8
1
6
ByLayer
62
256
370
-1
100
AcDbLine
10
-10.0066017178
20
-26.8198051534
11
-11.2066017178
21
-26.8198051534
0
LINE
5
51D
100
AcDbEntity
8
1
6
ByLayer
62
256
370
-1
100
AcDbLine
10
-11.2066017178
20
-26.8198051534
11
-11.2066017178
21
-27.8198051534
0
LINE
5
51E
100
AcDbEntity
8
1
6
ByLayer
62
256
370
-1
100
AcDbLine
10
-1.5
20
-35.4264068712
11
1.5
21
-35.4264068712
0
LINE
5
51F
100
AcDbEntity
8
1
6
ByLayer
62
256
370
-1
100
AcDbLine
10
-1.5
20
-35.4264068712
11
-1.5
21
-38.4264068712
0
LINE
5
520
100
AcDbEntity
8
1
6
ByLayer
62
256
370
-1
100
AcDbLine
10
1.5
20
-35.4264068712
11
1.5
21
-38.4264068712
0
LINE
5
521
100
AcDbEntity
8
1
6
ByLayer
62
256
370
-1
100
AcDbLine
10
-1.5
20
-38.4264068712
11
-0.6
21
-38.4264068712
0
LINE
5
522
100
AcDbEntity
8
1
6
ByLayer
62
256
370
-1
100
AcDbLine
10
0.6
20
-37.4264068712
11
0.6
21
-38.4264068712
0
LINE
5
523
100
AcDbEntity
8
1
6
ByLayer
62
256
370
-1
100
AcDbLine
10
0.6
20
-38.4264068712
11
1.5
21
-38.4264068712
0
LINE
5
524
100
AcDbEntity
8
1
6
ByLayer
62
256
370
-1
100
AcDbLine
10
0.6
20
-37.4264068712
11
-0.6
21
-37.4264068712
0
LINE
5
525
100
AcDbEntity
8
1
6
ByLayer
62
256
370
-1
100
AcDbLine
10
-0.6
20
-37.4264068712
11
-0.6
21
-38.4264068712
0
LINE
5
526
100
AcDbEntity
8
1
6
ByLayer
62
256
370
-1
100
AcDbLine
10
9.1066017178
20
-46.033008589
11
12.1066017178
21
-46.033008589
0
LINE
5
527
100
AcDbEntity
8
1
6
ByLayer
62
256
370
-1
100
AcDbLine
10
9.1066017178
20
-46.033008589
11
9.1066017178
21
-49.033008589
0
LINE
5
528
100
AcDbEntity
8
1
6
ByLayer
62
256
370
-1
100
AcDbLine
10
12.1066017178
20
-46.033008589
11
12.1066017178
21
-49.033008589
0
LINE
5
529
100
AcDbEntity
8
1
6
ByLayer
62
256
370
-1
100
AcDbLine
10
9.1066017178
20
-49.033008589
11
10.0066017178
21
-49.033008589
0
LINE
5
52A
100
AcDbEntity
8
1
6
ByLayer
62
256
370
-1
100
AcDbLine
10
11.2066017178
20
-48.033008589
11
11.2066017178
21
-49.033008589
0
LINE
5
52B
100
AcDbEntity
8
1
6
ByLayer
62
256
370
-1
100
AcDbLine
10
11.2066017178
20
-49.033008589
11
12.1066017178
21
-49.033008589
0
LINE
5
52C
100
AcDbEntity
8
1
6
ByLayer
62
256
370
-1
100
AcDbLine
10
11.2066017178
20
-48.033008589
11
10.0066017178
21
-48.033008589
0
LINE
5
52D
100
AcDbEntity
8
1
6
ByLayer
62
256
370
-1
100
AcDbLine
10
10.0066017178
20
-48.033008589
11
10.0066017178
21
-49.033008589
0
LINE
5
52E
100
AcDbEntity
8
1
6
ByLayer
62
256
370
-1
100
AcDbLine
10
19.7132034356
20
-56.6396103068
11
22.7132034356
21
-56.6396103068
0
LINE
5
52F
100
AcDbEntity
8
1
6
ByLayer
62
256
370
-1
100
AcDbLine
10
19.7132034356
20
-56.6396103068
11
19.7132034356
21
-59.6396103068
0
LINE
5
530
100
AcDbEntity
8
1
6
ByLayer
62
256
370
-1
100
AcDbLine
10
22.7132034356
20
-56.6396103068
11
22.7132034356
21
-59.6396103068
0
LINE
5
531
100
AcDbEntity
8
1
6
ByLayer
62
256
370
-1
100
AcDbLine
10
19.7132034356
20
-59.6396103068
11
20.6132034356
21
-59.6396103068
0
LINE
5
532
100
AcDbEntity
8
1
6
ByLayer
62
256
370
-1
100
AcDbLine
10
21.8132034356
20
-58.6396103068
11
21.8132034356
21
-59.6396103068
0
LINE
5
533
100
AcDbEntity
8
1
6
ByLayer
62
256
370
-1
100
AcDbLine
10
21.8132034356
20
-59.6396103068
11
22.7132034356
21
-59.6396103068
0
LINE
5
534
100
AcDbEntity
8
1
6
ByLayer
62
256
370
-1
100
AcDbLine
10
21.8132034356
20
-58.6396103068
11
20.6132034356
21
-58.6396103068
0
LINE
5
535
100
AcDbEntity
8
1
6
ByLayer
62
256
370
-1
100
AcDbLine
10
20.6132034356
20
-58.6396103068
11
20.6132034356
21
-59.6396103068
0
LINE
5
536
100
AcDbEntity
8
1
6
ByLayer
62
256
370
-1
100
AcDbLine
10
30.3198051534
20
-67.2462120246
11
33.3198051534
21
-67.2462120246
0
LINE
5
537
100
AcDbEntity
8
1
6
ByLayer
62
256
370
-1
100
AcDbLine
10
30.3198051534
20
-67.2462120246
11
30.3198051534
21
-70.2462120246
0
LINE
5
538
100
AcDbEntity
8
1
6
ByLayer
62
256
370
-1
100
AcDbLine
10
33.3198051534
20
-67.2462120246
11
33.3198051534
21
-70.2462120246
0
LINE
5
539
100
AcDbEntity
8
1
6
ByLayer
62
256
370
-1
100
AcDbLine
10
30.3198051534
20
-70.2462120246
11
31.2198051534
21
-70.2462120246
0
LINE
5
53A
100
AcDbEntity
8
1
6
ByLayer
62
256
370
-1
100
AcDbLine
10
32.4198051534
20
-69.2462120246
11
32.4198051534
21
-70.2462120246
0
LINE
5
53B
100
AcDbEntity
8
1
6
ByLayer
62
256
370
-1
100
AcDbLine
10
32.4198051534
20
-70.2462120246
11
33.3198051534
21
-70.2462120246
0
LINE
5
53C
100
AcDbEntity
8
1
6
ByLayer
62
256
370
-1
100
AcDbLine
10
32.4198051534
20
-69.2462120246
11
31.2198051534
21
-69.2462120246
0
LINE
5
53D
100
AcDbEntity
8
1
6
ByLayer
62
256
370
-1
100
AcDbLine
10
31.2198051534
20
-69.2462120246
11
31.2198051534
21
-70.2462120246
0
LINE
5
53E
100
AcDbEntity
8
1
6
ByLayer
62
256
370
-1
100
AcDbLine
10
40.9264068712
20
-77.8528137424
11
43.9264068712
21
-77.8528137424
0
LINE
5
53F
100
AcDbEntity
8
1
6
ByLayer
62
256
370
-1
100
AcDbLine
10
40.9264068712
20
-77.8528137424
11
40.9264068712
21
-80.8528137424
0
LINE
5
540
100
AcDbEntity
8
1
6
ByLayer
62
256
370
-1
100
AcDbLine
10
43.9264068712
20
-77.8528137424
11
43.9264068712
21
-80.8528137424
0
LINE
5
541
100
AcDbEntity
8
1
6
ByLayer
62
256
370
-1
100
AcDbLine
10
40.9264068712
20
-80.8528137424
11
41.8264068712
21
-80.8528137424
0
LINE
5
542
100
AcDbEntity
8
1
6
ByLayer
62
256
370
-1
100
AcDbLine
10
43.0264068712
20
-79.8528137424
11
43.0264068712
21
-80.8528137424
0
LINE
5
543
100
AcDbEntity
8
1
6
ByLayer
62
256
370
-1
100
AcDbLine
10
43.0264068712
20
-80.8528137424
11
43.9264068712
21
-80.8528137424
0
LINE
5
544
100
AcDbEntity
8
1
6
ByLayer
62
256
370
-1
100
AcDbLine
10
43.0264068712
20
-79.8528137424
11
41.8264068712
21
-79.8528137424
0
LINE
5
545
100
AcDbEntity
8
1
6
ByLayer
62
256
370
-1
100
AcDbLine
10
41.8264068712
20
-79.8528137424
11
41.8264068712
21
-80.8528137424
0
LINE
5
546
100
AcDbEntity
8
1
6
ByLayer
62
256
370
-1
100
AcDbLine
10
51.533008589
20
-88.4594154602
11
54.533008589
21
-88.4594154602
0
LINE
5
547
100
AcDbEntity
8
1
6
ByLayer
62
256
370
-1
100
AcDbLine
10
51.533008589
20
-88.4594154602
11
51.533008589
21
-91.4594154602
0
LINE
5
548
100
AcDbEntity
8
1
6
ByLayer
62
256
370
-1
100
AcDbLine
10
54.533008589
20
-88.4594154602
11
54.533008589
21
-91.4594154602
0
LINE
5
549
100
AcDbEntity
8
1
6
ByLayer
62
256
370
-1
100
AcDbLine
10
51.533008589
20
-91.4594154602
11
52.433008589
21
-91.4594154602
0
LINE
5
54A
100
AcDbEntity
8
1
6
ByLayer
62
256
370
-1
100
AcDbLine
10
53.633008589
20
-90.4594154602
11
53.633008589
21
-91.4594154602
0
LINE
5
54B
100
AcDbEntity
8
1
6
ByLayer
62
256
370
-1
100
AcDbLine
10
53.633008589
20
-91.4594154602
11
54.533008589
21
-91.4594154602
0
LINE
5
54C
100
AcDbEntity
8
1
6
ByLayer
62
256
370
-1
100
AcDbLine
10
53.633008589
20
-90.4594154602
11
52.433008589
21
-90.4594154602
0
LINE
5
54D
100
AcDbEntity
8
1
6
ByLayer
62
256
370
-1
100
AcDbLine
10
52.433008589
20
-90.4594154602
11
52.433008589
21
-91.4594154602
0
LINE
5
54E
100
AcDbEntity
8
1
6
ByLayer
62
256
370
-1
100
AcDbLine
10
-33.3198051534
20
-24.8198051534
11
-30.3198051534
21
-24.8198051534
0
LINE
5
54F
100
AcDbEntity
8
1
6
ByLayer
62
256
370
-1
100
AcDbLine
10
-33.3198051534
20
-24.8198051534
11
-33.3198051534
21
-27.8198051534
0
LINE
5
550
100
AcDbEntity
8
1
6
ByLayer
62
256
370
-1
100
AcDbLine
10
-30.3198051534
20
-24.8198051534
11
-30.3198051534
21
-27.8198051534
0
LINE
5
551
100
AcDbEntity
8
1
6
ByLayer
62
256
370
-1
100
AcDbLine
10
-33.3198051534
20
-27.8198051534
11
-32.4198051534
21
-27.8198051534
0
LINE
5
552
100
AcDbEntity
8
1
6
ByLayer
62
256
370
-1
100
AcDbLine
10
-31.2198051534
20
-26.8198051534
11
-31.2198051534
21
-27.8198051534
0
LINE
5
553
100
AcDbEntity
8
1
6
ByLayer
62
256
370
-1
100
AcDbLine
10
-31.2198051534
20
-27.8198051534
11
-30.3198051534
21
-27.8198051534
0
LINE
5
554
100
AcDbEntity
8
1
6
ByLayer
62
256
370
-1
100
AcDbLine
10
-31.2198051534
20
-26.8198051534
11
-32.4198051534
21
-26.8198051534
0
LINE
5
555
100
AcDbEntity
8
1
6
ByLayer
62
256
370
-1
100
AcDbLine
10
-32.4198051534
20
-26.8198051534
11
-32.4198051534
21
-27.8198051534
0
LINE
5
556
100
AcDbEntity
8
1
6
ByLayer
62
256
370
-1
100
AcDbLine
10
-22.7132034356
20
-35.4264068712
11
-19.7132034356
21
-35.4264068712
0
LINE
5
557
100
AcDbEntity
8
1
6
ByLayer
62
256
370
-1
100
AcDbLine
10
-22.7132034356
20
-35.4264068712
11
-22.7132034356
21
-38.4264068712
0
LINE
5
558
100
AcDbEntity
8
1
6
ByLayer
62
256
370
-1
100
AcDbLine
10
-19.7132034356
20
-35.4264068712
11
-19.7132034356
21
-38.4264068712
0
LINE
5
559
100
AcDbEntity
8
1
6
ByLayer
62
256
370
-1
100
AcDbLine
10
-22.7132034356
20
-38.4264068712
11
-21.8132034356
21
-38.4264068712
0
LINE
5
55A
100
AcDbEntity
8
1
6
ByLayer
62
256
370
-1
100
AcDbLine
10
-20.6132034356
20
-37.4264068712
11
-20.6132034356
21
-38.4264068712
0
LINE
5
55B
100
AcDbEntity
8
1
6
ByLayer
62
256
370
-1
100
AcDbLine
10
-20.6132034356
20
-38.4264068712
11
-19.7132034356
21
-38.4264068712
0
LINE
5
55C
100
AcDbEntity
8
1
6
ByLayer
62
256
370
-1
100
AcDbLine
10
-20.6132034356
20
-37.4264068712
11
-21.8132034356
21
-37.4264068712
0
LINE
5
55D
100
AcDbEntity
8
1
6
ByLayer
62
256
370
-1
100
AcDbLine
10
-21.8132034356
20
-37.4264068712
11
-21.8132034356
21
-38.4264068712
0
LINE
5
55E
100
AcDbEntity
8
1
6
ByLayer
62
256
370
-1
100
AcDbLine
10
-12.1066017178
20
-46.033008589
11
-9.1066017178
21
-46.033008589
0
LINE
5
55F
100
AcDbEntity
8
1
6
ByLayer
62
256
370
-1
100
AcDbLine
10
-12.1066017178
20
-46.033008589
11
-12.1066017178
21
-49.033008589
0
LINE
5
560
100
AcDbEntity
8
1
6
ByLayer
62
256
370
-1
100
AcDbLine
10
-9.1066017178
20
-46.033008589
11
-9.1066017178
21
-49.033008589
0
LINE
5
561
100
AcDbEntity
8
1
6
ByLayer
62
256
370
-1
100
AcDbLine
10
-12.1066017178
20
-49.033008589
11
-11.2066017178
21
-49.033008589
0
LINE
5
562
100
AcDbEntity
8
1
6
ByLayer
62
256
370
-1
100
AcDbLine
10
-10.0066017178
20
-48.033008589
11
-10.0066017178
21
-49.033008589
0
LINE
5
563
100
AcDbEntity
8
1
6
ByLayer
62
256
370
-1
100
AcDbLine
10
-10.0066017178
20
-49.033008589
11
-9.1066017178
21
-49.033008589
0
LINE
5
564
100
AcDbEntity
8
1
6
ByLayer
62
256
370
-1
100
AcDbLine
10
-10.0066017178
20
-48.033008589
11
-11.2066017178
21
-48.033008589
0
LINE
5
565
100
AcDbEntity
8
1
6
ByLayer
62
256
370
-1
100
AcDbLine
10
-11.2066017178
20
-48.033008589
11
-11.2066017178
21
-49.033008589
0
LINE
5
566
100
AcDbEntity
8
1
6
ByLayer
62
256
370
-1
100
AcDbLine
10
-1.5
20
-56.6396103068
11
1.5
21
-56.6396103068
0
LINE
5
567
100
AcDbEntity
8
1
6
ByLayer
62
256
370
-1
100
AcDbLine
10
-1.5
20
-56.6396103068
11
-1.5
21
-59.6396103068
0
LINE
5
568
100
AcDbEntity
8
1
6
ByLayer
62
256
370
-1
100
AcDbLine
10
1.5
20
-56.6396103068
11
1.5
21
-59.6396103068
0
LINE
5
569
100
AcDbEntity
8
1
6
ByLayer
62
256
370
-1
100
AcDbLine
10
-1.5
20
-59.6396103068
11
-0.6
21
-59.6396103068
0
LINE
5
56A
100
AcDbEntity
8
1
6
ByLayer
62
256
370
-1
100
AcDbLine
10
0.6
20
-58.6396103068
11
0.6
21
-59.6396103068
0
LINE
5
56B
100
AcDbEntity
8
1
6
ByLayer
62
256
370
-1
100
AcDbLine
10
0.6
20
-59.6396103068
11
1.5
21
-59.6396103068
0
LINE
5
56C
100
AcDbEntity
8
1
6
ByLayer
62
256
370
-1
100
AcDbLine
10
0.6
20
-58.6396103068
11
-0.6
21
-58.6396103068
0
LINE
5
56D
100
AcDbEntity
8
1
6
ByLayer
62
256
370
-1
100
AcDbLine
10
-0.6
20
-58.6396103068
11
-0.6
21
-59.6396103068
0
LINE
5
56E
100
AcDbEntity
8
1
6
ByLayer
62
256
370
-1
100
AcDbLine
10
9.1066017178
20
-67.2462120246
11
12.1066017178
21
-67.2462120246
0
LINE
5
56F
100
AcDbEntity
8
1
6
ByLayer
62
256
370
-1
100
AcDbLine
10
9.1066017178
20
-67.2462120246
11
9.1066017178
21
-70.2462120246
0
LINE
5
570
100
AcDbEntity
8
1
6
ByLayer
62
256
370
-1
100
AcDbLine
10
12.1066017178
20
-67.2462120246
11
12.1066017178
21
-70.2462120246
0
LINE
5
571
100
AcDbEntity
8
1
6
ByLayer
62
256
370
-1
100
AcDbLine
10
9.1066017178
20
-70.2462120246
11
10.0066017178
21
-70.2462120246
0
LINE
5
572
100
AcDbEntity
8
1
6
ByLayer
62
256
370
-1
100
AcDbLine
10
11.2066017178
20
-69.2462120246
11
11.2066017178
21
-70.2462120246
0
LINE
5
573
100
AcDbEntity
8
1
6
ByLayer
62
256
370
-1
100
AcDbLine
10
11.2066017178
20
-70.2462120246
11
12.1066017178
21
-70.2462120246
0
LINE
5
574
100
AcDbEntity
8
1
6
ByLayer
62
256
370
-1
100
AcDbLine
10
11.2066017178
20
-69.2462120246
11
10.0066017178
21
-69.2462120246
0
LINE
5
575
100
AcDbEntity
8
1
6
ByLayer
62
256
370
-1
100
AcDbLine
10
10.0066017178
20
-69.2462120246
11
10.0066017178
21
-70.2462120246
0
LINE
5
576
100
AcDbEntity
8
1
6
ByLayer
62
256
370
-1
100
AcDbLine
10
19.7132034356
20
-77.8528137424
11
22.7132034356
21
-77.8528137424
0
LINE
5
577
100
AcDbEntity
8
1
6
ByLayer
62
256
370
-1
100
AcDbLine
10
19.7132034356
20
-77.8528137424
11
19.7132034356
21
-80.8528137424
0
LINE
5
578
100
AcDbEntity
8
1
6
ByLayer
62
256
370
-1
100
AcDbLine
10
22.7132034356
20
-77.8528137424
11
22.7132034356
21
-80.8528137424
0
LINE
5
579
100
AcDbEntity
8
1
6
ByLayer
62
256
370
-1
100
AcDbLine
10
19.7132034356
20
-80.8528137424
11
20.6132034356
21
-80.8528137424
0
LINE
5
57A
100
AcDbEntity
8
1
6
ByLayer
62
256
370
-1
100
AcDbLine
10
21.8132034356
20
-79.8528137424
11
21.8132034356
21
-80.8528137424
0
LINE
5
57B
100
AcDbEntity
8
1
6
ByLayer
62
256
370
-1
100
AcDbLine
10
21.8132034356
20
-80.8528137424
11
22.7132034356
21
-80.8528137424
0
LINE
5
57C
100
AcDbEntity
8
1
6
ByLayer
62
256
370
-1
100
AcDbLine
10
21.8132034356
20
-79.8528137424
11
20.6132034356
21
-79.8528137424
0
LINE
5
57D
100
AcDbEntity
8
1
6
ByLayer
62
256
370
-1
100
AcDbLine
10
20.6132034356
20
-79.8528137424
11
20.6132034356
21
-80.8528137424
0
LINE
5
57E
100
AcDbEntity
8
1
6
ByLayer
62
256
370
-1
100
AcDbLine
10
30.3198051534
20
-88.4594154602
11
33.3198051534
21
-88.4594154602
0
LINE
5
57F
100
AcDbEntity
8
1
6
ByLayer
62
256
370
-1
100
AcDbLine
10
30.3198051534
20
-88.4594154602
11
30.3198051534
21
-91.4594154602
0
LINE
5
580
100
AcDbEntity
8
1
6
ByLayer
62
256
370
-1
100
AcDbLine
10
33.3198051534
20
-88.4594154602
11
33.3198051534
21
-91.4594154602
0
LINE
5
581
100
AcDbEntity
8
1
6
ByLayer
62
256
370
-1
100
AcDbLine
10
30.3198051534
20
-91.4594154602
11
31.2198051534
21
-91.4594154602
0
LINE
5
582
100
AcDbEntity
8
1
6
ByLayer
62
256
370
-1
100
AcDbLine
10
32.4198051534
20
-90.4594154602
11
32.4198051534
21
-91.4594154602
0
LINE
5
583
100
AcDbEntity
8
1
6
ByLayer
62
256
370
-1
100
AcDbLine
10
32.4198051534
20
-91.4594154602
11
33.3198051534
21
-91.4594154602
0
LINE
5
584
100
AcDbEntity
8
1
6
ByLayer
62
256
370
-1
100
AcDbLine
10
32.4198051534
20
-90.4594154602
11
31.2198051534
21
-90.4594154602
0
LINE
5
585
100
AcDbEntity
8
1
6
ByLayer
62
256
370
-1
100
AcDbLine
10
31.2198051534
20
-90.4594154602
11
31.2198051534
21
-91.4594154602
0
LINE
5
586
100
AcDbEntity
8
1
6
ByLayer
62
256
370
-1
100
AcDbLine
10
40.9264068712
20
-99.066017178
11
43.9264068712
21
-99.066017178
0
LINE
5
587
100
AcDbEntity
8
1
6
ByLayer
62
256
370
-1
100
AcDbLine
10
40.9264068712
20
-99.066017178
11
40.9264068712
21
-102.066017178
0
LINE
5
588
100
AcDbEntity
8
1
6
ByLayer
62
256
370
-1
100
AcDbLine
10
43.9264068712
20
-99.066017178
11
43.9264068712
21
-102.066017178
0
LINE
5
589
100
AcDbEntity
8
1
6
ByLayer
62
256
370
-1
100
AcDbLine
10
40.9264068712
20
-102.066017178
11
41.8264068712
21
-102.066017178
0
LINE
5
58A
100
AcDbEntity
8
1
6
ByLayer
62
256
370
-1
100
AcDbLine
10
43.0264068712
20
-101.066017178
11
43.0264068712
21
-102.066017178
0
LINE
5
58B
100
AcDbEntity
8
1
6
ByLayer
62
256
370
-1
100
AcDbLine
10
43.0264068712
20
-102.066017178
11
43.9264068712
21
-102.066017178
0
LINE
5
58C
100
AcDbEntity
8
1
6
ByLayer
62
256
370
-1
100
AcDbLine
10
43.0264068712
20
-101.066017178
11
41.8264068712
21
-101.066017178
0
LINE
5
58D
100
AcDbEntity
8
1
6
ByLayer
62
256
370
-1
100
AcDbLine
10
41.8264068712
20
-101.066017178
11
41.8264068712
21
-102.066017178
0
LINE
5
58E
100
AcDbEntity
8
1
6
ByLayer
62
256
370
-1
100
AcDbLine
10
-43.9264068712
20
-35.4264068712
11
-40.9264068712
21
-35.4264068712
0
LINE
5
58F
100
AcDbEntity
8
1
6
ByLayer
62
256
370
-1
100
AcDbLine
10
-43.9264068712
20
-35.4264068712
11
-43.9264068712
21
-38.4264068712
0
LINE
5
590
100
AcDbEntity
8
1
6
ByLayer
62
256
370
-1
100
AcDbLine
10
-40.9264068712
20
-35.4264068712
11
-40.9264068712
21
-38.4264068712
0
LINE
5
591
100
AcDbEntity
8
1
6
ByLayer
62
256
370
-1
100
AcDbLine
10
-43.9264068712
20
-38.4264068712
11
-43.0264068712
21
-38.4264068712
0
LINE
5
592
100
AcDbEntity
8
1
6
ByLayer
62
256
370
-1
100
AcDbLine
10
-41.8264068712
20
-37.4264068712
11
-41.8264068712
21
-38.4264068712
0
LINE
5
593
100
AcDbEntity
8
1
6
ByLayer
62
256
370
-1
100
AcDbLine
10
-41.8264068712
20
-38.4264068712
11
-40.9264068712
21
-38.4264068712
0
LINE
5
594
100
AcDbEntity
8
1
6
ByLayer
62
256
370
-1
100
AcDbLine
10
-41.8264068712
20
-37.4264068712
11
-43.0264068712
21
-37.4264068712
0
LINE
5
595
100
AcDbEntity
8
1
6
ByLayer
62
256
370
-1
100
AcDbLine
10
-43.0264068712
20
-37.4264068712
11
-43.0264068712
21
-38.4264068712
0
LINE
5
596
100
AcDbEntity
8
1
6
ByLayer
62
256
370
-1
100
AcDbLine
10
-33.3198051534
20
-46.033008589
11
-30.3198051534
21
-46.033008589
0
LINE
5
597
100
AcDbEntity
8
1
6
ByLayer
62
256
370
-1
100
AcDbLine
10
-33.3198051534
20
-46.033008589
11
-33.3198051534
21
-49.033008589
0
LINE
5
598
100
AcDbEntity
8
1
6
ByLayer
62
256
370
-1
100
AcDbLine
10
-30.3198051534
20
-46.033008589
11
-30.3198051534
21
-49.033008589
0
LINE
5
599
100
AcDbEntity
8
1
6
ByLayer
62
256
370
-1
100
AcDbLine
10
-33.3198051534
20
-49.033008589
11
-32.4198051534
21
-49.033008589
0
LINE
5
59A
100
AcDbEntity
8
1
6
ByLayer
62
256
370
-1
100
AcDbLine
10
-31.2198051534
20
-48.033008589
11
-31.2198051534
21
-49.033008589
0
LINE
5
59B
100
AcDbEntity
8
1
6
ByLayer
62
256
370
-1
100
AcDbLine
10
-31.2198051534
20
-49.033008589
11
-30.3198051534
21
-49.033008589
0
LINE
5
59C
100
AcDbEntity
8
1
6
ByLayer
62
256
370
-1
100
AcDbLine
10
-31.2198051534
20
-48.033008589
11
-32.4198051534
21
-48.033008589
0
LINE
5
59D
100
AcDbEntity
8
1
6
ByLayer
62
256
370
-1
100
AcDbLine
10
-32.4198051534
20
-48.033008589
11
-32.4198051534
21
-49.033008589
0
LINE
5
59E
100
AcDbEntity
8
1
6
ByLayer
62
256
370
-1
100
AcDbLine
10
-22.7132034356
20
-56.6396103068
11
-19.7132034356
21
-56.6396103068
0
LINE
5
59F
100
AcDbEntity
8
1
6
ByLayer
62
256
370
-1
100
AcDbLine
10
-22.7132034356
20
-56.6396103068
11
-22.7132034356
21
-59.6396103068
0
LINE
5
5A0
100
AcDbEntity
8
1
6
ByLayer
62
256
370
-1
100
AcDbLine
10
-19.7132034356
20
-56.6396103068
11
-19.7132034356
21
-59.6396103068
0
LINE
5
5A1
100
AcDbEntity
8
1
6
ByLayer
62
256
370
-1
100
AcDbLine
10
-22.7132034356
20
-59.6396103068
11
-21.8132034356
21
-59.6396103068
0
LINE
5
5A2
100
AcDbEntity
8
1
6
ByLayer
62
256
370
-1
100
AcDbLine
10
-20.6132034356
20
-58.6396103068
11
-20.6132034356
21
-59.6396103068
0
LINE
5
5A3
100
AcDbEntity
8
1
6
ByLayer
62
256
370
-1
100
AcDbLine
10
-20.6132034356
20
-59.6396103068
11
-19.7132034356
21
-59.6396103068
0
LINE
5
5A4
100
AcDbEntity
8
1
6
ByLayer
62
256
370
-1
100
AcDbLine
10
-20.6132034356
20
-58.6396103068
11
-21.8132034356
21
-58.6396103068
0
LINE
5
5A5
100
AcDbEntity
8
1
6
ByLayer
62
256
370
-1
100
AcDbLine
10
-21.8132034356
20
-58.6396103068
11
-21.8132034356
21
-59.6396103068
0
LINE
5
5A6
100
AcDbEntity
8
1
6
ByLayer
62
256
370
-1
100
AcDbLine
10
-12.1066017178
20
-67.2462120246
11
-9.1066017178
21
-67.2462120246
0
LINE
5
5A7
100
AcDbEntity
8
1
6
ByLayer
62
256
370
-1
100
AcDbLine
10
-12.1066017178
20
-67.2462120246
11
-12.1066017178
21
-70.2462120246
0
LINE
5
5A8
100
AcDbEntity
8
1
6
ByLayer
62
256
370
-1
100
AcDbLine
10
-9.1066017178
20
-67.2462120246
11
-9.1066017178
21
-70.2462120246
0
LINE
5
5A9
100
AcDbEntity
8
1
6
ByLayer
62
256
370
-1
100
AcDbLine
10
-12.1066017178
20
-70.2462120246
11
-11.2066017178
21
-70.2462120246
0
LINE
5
5AA
100
AcDbEntity
8
1
6
ByLayer
62
256
370
-1
100
AcDbLine
10
-10.0066017178
20
-69.2462120246
11
-10.0066017178
21
-70.2462120246
0
LINE
5
5AB
100
AcDbEntity
8
1
6
ByLayer
62
256
370
-1
100
AcDbLine
10
-10.0066017178
20
-70.2462120246
11
-9.1066017178
21
-70.2462120246
0
LINE
5
5AC
100
AcDbEntity
8
1
6
ByLayer
62
256
370
-1
100
AcDbLine
10
-10.0066017178
20
-69.2462120246
11
-11.2066017178
21
-69.2462120246
0
LINE
5
5AD
100
AcDbEntity
8
1
6
ByLayer
62
256
370
-1
100
AcDbLine
10
-11.2066017178
20
-69.2462120246
11
-11.2066017178
21
-70.2462120246
0
LINE
5
5AE
100
AcDbEntity
8
1
6
ByLayer
62
256
370
-1
100
AcDbLine
10
-1.5
20
-77.8528137424
11
1.5
21
-77.8528137424
0
LINE
5
5AF
100
AcDbEntity
8
1
6
ByLayer
62
256
370
-1
100
AcDbLine
10
-1.5
20
-77.8528137424
11
-1.5
21
-80.8528137424
0
LINE
5
5B0
100
AcDbEntity
8
1
6
ByLayer
62
256
370
-1
100
AcDbLine
10
1.5
20
-77.8528137424
11
1.5
21
-80.8528137424
0
LINE
5
5B1
100
AcDbEntity
8
1
6
ByLayer
62
256
370
-1
100
AcDbLine
10
-1.5
20
-80.8528137424
11
-0.6
21
-80.8528137424
0
LINE
5
5B2
100
AcDbEntity
8
1
6
ByLayer
62
256
370
-1
100
AcDbLine
10
0.6
20
-79.8528137424
11
0.6
21
-80.8528137424
0
LINE
5
5B3
100
AcDbEntity
8
1
6
ByLayer
62
256
370
-1
100
AcDbLine
10
0.6
20
-80.8528137424
11
1.5
21
-80.8528137424
0
LINE
5
5B4
100
AcDbEntity
8
1
6
ByLayer
62
256
370
-1
100
AcDbLine
10
0.6
20
-79.8528137424
11
-0.6
21
-79.8528137424
0
LINE
5
5B5
100
AcDbEntity
8
1
6
ByLayer
62
256
370
-1
100
AcDbLine
10
-0.6
20
-79.8528137424
11
-0.6
21
-80.8528137424
0
LINE
5
5B6
100
AcDbEntity
8
1
6
ByLayer
62
256
370
-1
100
AcDbLine
10
9.1066017178
20
-88.4594154602
11
12.1066017178
21
-88.4594154602
0
LINE
5
5B7
100
AcDbEntity
8
1
6
ByLayer
62
256
370
-1
100
AcDbLine
10
9.1066017178
20
-88.4594154602
11
9.1066017178
21
-91.4594154602
0
LINE
5
5B8
100
AcDbEntity
8
1
6
ByLayer
62
256
370
-1
100
AcDbLine
10
12.1066017178
20
-88.4594154602
11
12.1066017178
21
-91.4594154602
0
LINE
5
5B9
100
AcDbEntity
8
1
6
ByLayer
62
256
370
-1
100
AcDbLine
10
9.1066017178
20
-91.4594154602
11
10.0066017178
21
-91.4594154602
0
LINE
5
5BA
100
AcDbEntity
8
1
6
ByLayer
62
256
370
-1
100
AcDbLine
10
11.2066017178
20
-90.4594154602
11
11.2066017178
21
-91.4594154602
0
LINE
5
5BB
100
AcDbEntity
8
1
6
ByLayer
62
256
370
-1
100
AcDbLine
10
11.2066017178
20
-91.4594154602
11
12.1066017178
21
-91.4594154602
0
LINE
5
5BC
100
AcDbEntity
8
1
6
ByLayer
62
256
370
-1
100
AcDbLine
10
11.2066017178
20
-90.4594154602
11
10.0066017178
21
-90.4594154602
0
LINE
5
5BD
100
AcDbEntity
8
1
6
ByLayer
62
256
370
-1
100
AcDbLine
10
10.0066017178
20
-90.4594154602
11
10.0066017178
21
-91.4594154602
0
LINE
5
5BE
100
AcDbEntity
8
1
6
ByLayer
62
256
370
-1
100
AcDbLine
10
19.7132034356
20
-99.066017178
11
22.7132034356
21
-99.066017178
0
LINE
5
5BF
100
AcDbEntity
8
1
6
ByLayer
62
256
370
-1
100
AcDbLine
10
19.7132034356
20
-99.066017178
11
19.7132034356
21
-102.066017178
0
LINE
5
5C0
100
AcDbEntity
8
1
6
ByLayer
62
256
370
-1
100
AcDbLine
10
22.7132034356
20
-99.066017178
11
22.7132034356
21
-102.066017178
0
LINE
5
5C1
100
AcDbEntity
8
1
6
ByLayer
62
256
370
-1
100
AcDbLine
10
19.7132034356
20
-102.066017178
11
20.6132034356
21
-102.066017178
0
LINE
5
5C2
100
AcDbEntity
8
1
6
ByLayer
62
256
370
-1
100
AcDbLine
10
21.8132034356
20
-101.066017178
11
21.8132034356
21
-102.066017178
0
LINE
5
5C3
100
AcDbEntity
8
1
6
ByLayer
62
256
370
-1
100
AcDbLine
10
21.8132034356
20
-102.066017178
11
22.7132034356
21
-102.066017178
0
LINE
5
5C4
100
AcDbEntity
8
1
6
ByLayer
62
256
370
-1
100
AcDbLine
10
21.8132034356
20
-101.066017178
11
20.6132034356
21
-101.066017178
0
LINE
5
5C5
100
AcDbEntity
8
1
6
ByLayer
62
256
370
-1
100
AcDbLine
10
20.6132034356
20
-101.066017178
11
20.6132034356
21
-102.066017178
0
LINE
5
5C6
100
AcDbEntity
8
1
6
ByLayer
62
256
370
-1
100
AcDbLine
10
30.3198051534
20
-109.672618896
11
33.3198051534
21
-109.672618896
0
LINE
5
5C7
100
AcDbEntity
8
1
6
ByLayer
62
256
370
-1
100
AcDbLine
10
30.3198051534
20
-109.672618896
11
30.3198051534
21
-112.672618896
0
LINE
5
5C8
100
AcDbEntity
8
1
6
ByLayer
62
256
370
-1
100
AcDbLine
10
33.3198051534
20
-109.672618896
11
33.3198051534
21
-112.672618896
0
LINE
5
5C9
100
AcDbEntity
8
1
6
ByLayer
62
256
370
-1
100
AcDbLine
10
30.3198051534
20
-112.672618896
11
31.2198051534
21
-112.672618896
0
LINE
5
5CA
100
AcDbEntity
8
1
6
ByLayer
62
256
370
-1
100
AcDbLine
10
32.4198051534
20
-111.672618896
11
32.4198051534
21
-112.672618896
0
LINE
5
5CB
100
AcDbEntity
8
1
6
ByLayer
62
256
370
-1
100
AcDbLine
10
32.4198051534
20
-112.672618896
11
33.3198051534
21
-112.672618896
0
LINE
5
5CC
100
AcDbEntity
8
1
6
ByLayer
62
256
370
-1
100
AcDbLine
10
32.4198051534
20
-111.672618896
11
31.2198051534
21
-111.672618896
0
LINE
5
5CD
100
AcDbEntity
8
1
6
ByLayer
62
256
370
-1
100
AcDbLine
10
31.2198051534
20
-111.672618896
11
31.2198051534
21
-112.672618896
0
LINE
5
5CE
100
AcDbEntity
8
1
6
ByLayer
62
256
370
-1
100
AcDbLine
10
-54.533008589
20
-46.033008589
11
-51.533008589
21
-46.033008589
0
LINE
5
5CF
100
AcDbEntity
8
1
6
ByLayer
62
256
370
-1
100
AcDbLine
10
-54.533008589
20
-46.033008589
11
-54.533008589
21
-49.033008589
0
LINE
5
5D0
100
AcDbEntity
8
1
6
ByLayer
62
256
370
-1
100
AcDbLine
10
-51.533008589
20
-46.033008589
11
-51.533008589
21
-49.033008589
0
LINE
5
5D1
100
AcDbEntity
8
1
6
ByLayer
62
256
370
-1
100
AcDbLine
10
-54.533008589
20
-49.033008589
11
-53.633008589
21
-49.033008589
0
LINE
5
5D2
100
AcDbEntity
8
1
6
ByLayer
62
256
370
-1
100
AcDbLine
10
-52.433008589
20
-48.033008589
11
-52.433008589
21
-49.033008589
0
LINE
5
5D3
100
AcDbEntity
8
1
6
ByLayer
62
256
370
-1
100
AcDbLine
10
-52.433008589
20
-49.033008589
11
-51.533008589
21
-49.033008589
0
LINE
5
5D4
100
AcDbEntity
8
1
6
ByLayer
62
256
370
-1
100
AcDbLine
10
-52.433008589
20
-48.033008589
11
-53.633008589
21
-48.033008589
0
LINE
5
5D5
100
AcDbEntity
8
1
6
ByLayer
62
256
370
-1
100
AcDbLine
10
-53.633008589
20
-48.033008589
11
-53.633008589
21
-49.033008589
0
LINE
5
5D6
100
AcDbEntity
8
1
6
ByLayer
62
256
370
-1
100
AcDbLine
10
-43.9264068712
20
-56.6396103068
11
-40.9264068712
21
-56.6396103068
0
LINE
5
5D7
100
AcDbEntity
8
1
6
ByLayer
62
256
370
-1
100
AcDbLine
10
-43.9264068712
20
-56.6396103068
11
-43.9264068712
21
-59.6396103068
0
LINE
5
5D8
100
AcDbEntity
8
1
6
ByLayer
62
256
370
-1
100
AcDbLine
10
-40.9264068712
20
-56.6396103068
11
-40.9264068712
21
-59.6396103068
0
LINE
5
5D9
100
AcDbEntity
8
1
6
ByLayer
62
256
370
-1
100
AcDbLine
10
-43.9264068712
20
-59.6396103068
11
-43.0264068712
21
-59.6396103068
0
LINE
5
5DA
100
AcDbEntity
8
1
6
ByLayer
62
256
370
-1
100
AcDbLine
10
-41.8264068712
20
-58.6396103068
11
-41.8264068712
21
-59.6396103068
0
LINE
5
5DB
100
AcDbEntity
8
1
6
ByLayer
62
256
370
-1
100
AcDbLine
10
-41.8264068712
20
-59.6396103068
11
-40.9264068712
21
-59.6396103068
0
LINE
5
5DC
100
AcDbEntity
8
1
6
ByLayer
62
256
370
-1
100
AcDbLine
10
-41.8264068712
20
-58.6396103068
11
-43.0264068712
21
-58.6396103068
0
LINE
5
5DD
100
AcDbEntity
8
1
6
ByLayer
62
256
370
-1
100
AcDbLine
10
-43.0264068712
20
-58.6396103068
11
-43.0264068712
21
-59.6396103068
0
LINE
5
5DE
100
AcDbEntity
8
1
6
ByLayer
62
256
370
-1
100
AcDbLine
10
-33.3198051534
20
-67.2462120246
11
-30.3198051534
21
-67.2462120246
0
LINE
5
5DF
100
AcDbEntity
8
1
6
ByLayer
62
256
370
-1
100
AcDbLine
10
-33.3198051534
20
-67.2462120246
11
-33.3198051534
21
-70.2462120246
0
LINE
5
5E0
100
AcDbEntity
8
1
6
ByLayer
62
256
370
-1
100
AcDbLine
10
-30.3198051534
20
-67.2462120246
11
-30.3198051534
21
-70.2462120246
0
LINE
5
5E1
100
AcDbEntity
8
1
6
ByLayer
62
256
370
-1
100
AcDbLine
10
-33.3198051534
20
-70.2462120246
11
-32.4198051534
21
-70.2462120246
0
LINE
5
5E2
100
AcDbEntity
8
1
6
ByLayer
62
256
370
-1
100
AcDbLine
10
-31.2198051534
20
-69.2462120246
11
-31.2198051534
21
-70.2462120246
0
LINE
5
5E3
100
AcDbEntity
8
1
6
ByLayer
62
256
370
-1
100
AcDbLine
10
-31.2198051534
20
-70.2462120246
11
-30.3198051534
21
-70.2462120246
0
LINE
5
5E4
100
AcDbEntity
8
1
6
ByLayer
62
256
370
-1
100
AcDbLine
10
-31.2198051534
20
-69.2462120246
11
-32.4198051534
21
-69.2462120246
0
LINE
5
5E5
100
AcDbEntity
8
1
6
ByLayer
62
256
370
-1
100
AcDbLine
10
-32.4198051534
20
-69.2462120246
11
-32.4198051534
21
-70.2462120246
0
LINE
5
5E6
100
AcDbEntity
8
1
6
ByLayer
62
256
370
-1
100
AcDbLine
10
-22.7132034356
20
-77.8528137424
11
-19.7132034356
21
-77.8528137424
0
LINE
5
5E7
100
AcDbEntity
8
1
6
ByLayer
62
256
370
-1
100
AcDbLine
10
-22.7132034356
20
-77.8528137424
11
-22.7132034356
21
-80.8528137424
0
LINE
5
5E8
100
AcDbEntity
8
1
6
ByLayer
62
256
370
-1
100
AcDbLine
10
-19.7132034356
20
-77.8528137424
11
-19.7132034356
21
-80.8528137424
0
LINE
5
5E9
100
AcDbEntity
8
1
6
ByLayer
62
256
370
-1
100
AcDbLine
10
-22.7132034356
20
-80.8528137424
11
-21.8132034356
21
-80.8528137424
0
LINE
5
5EA
100
AcDbEntity
8
1
6
ByLayer
62
256
370
-1
100
AcDbLine
10
-20.6132034356
20
-79.8528137424
11
-20.6132034356
21
-80.8528137424
0
LINE
5
5EB
100
AcDbEntity
8
1
6
ByLayer
62
256
370
-1
100
AcDbLine
10
-20.6132034356
20
-80.8528137424
11
-19.7132034356
21
-80.8528137424
0
LINE
5
5EC
100
AcDbEntity
8
1
6
ByLayer
62
256
370
-1
100
AcDbLine
10
-20.6132034356
20
-79.8528137424
11
-21.8132034356
21
-79.8528137424
0
LINE
5
5ED
100
AcDbEntity
8
1
6
ByLayer
62
256
370
-1
100
AcDbLine
10
-21.8132034356
20
-79.8528137424
11
-21.8132034356
21
-80.8528137424
0
LINE
5
5EE
100
AcDbEntity
8
1
6
ByLayer
62
256
370
-1
100
AcDbLine
10
-12.1066017178
20
-88.4594154602
11
-9.1066017178
21
-88.4594154602
0
LINE
5
5EF
100
AcDbEntity
8
1
6
ByLayer
62
256
370
-1
100
AcDbLine
10
-12.1066017178
20
-88.4594154602
11
-12.1066017178
21
-91.4594154602
0
LINE
5
5F0
100
AcDbEntity
8
1
6
ByLayer
62
256
370
-1
100
AcDbLine
10
-9.1066017178
20
-88.4594154602
11
-9.1066017178
21
-91.4594154602
0
LINE
5
5F1
100
AcDbEntity
8
1
6
ByLayer
62
256
370
-1
100
AcDbLine
10
-12.1066017178
20
-91.4594154602
11
-11.2066017178
21
-91.4594154602
0
LINE
5
5F2
100
AcDbEntity
8
1
6
ByLayer
62
256
370
-1
100
AcDbLine
10
-10.0066017178
20
-90.4594154602
11
-10.0066017178
21
-91.4594154602
0
LINE
5
5F3
100
AcDbEntity
8
1
6
ByLayer
62
256
370
-1
100
AcDbLine
10
-10.0066017178
20
-91.4594154602
11
-9.1066017178
21
-91.4594154602
0
LINE
5
5F4
100
AcDbEntity
8
1
6
ByLayer
62
256
370
-1
100
AcDbLine
10
-10.0066017178
20
-90.4594154602
11
-11.2066017178
21
-90.4594154602
0
LINE
5
5F5
100
AcDbEntity
8
1
6
ByLayer
62
256
370
-1
100
AcDbLine
10
-11.2066017178
20
-90.4594154602
11
-11.2066017178
21
-91.4594154602
0
LINE
5
5F6
100
AcDbEntity
8
1
6
ByLayer
62
256
370
-1
100
AcDbLine
10
-1.5
20
-99.066017178
11
1.5
21
-99.066017178
0
LINE
5
5F7
100
AcDbEntity
8
1
6
ByLayer
62
256
370
-1
100
AcDbLine
10
-1.5
20
-99.066017178
11
-1.5
21
-102.066017178
0
LINE
5
5F8
100
AcDbEntity
8
1
6
ByLayer
62
256
370
-1
100
AcDbLine
10
1.5
20
-99.066017178
11
1.5
21
-102.066017178
0
LINE
5
5F9
100
AcDbEntity
8
1
6
ByLayer
62
256
370
-1
100
AcDbLine
10
-1.5
20
-102.066017178
11
-0.6
21
-102.066017178
0
LINE
5
5FA
100
AcDbEntity
8
1
6
ByLayer
62
256
370
-1
100
AcDbLine
10
0.6
20
-101.066017178
11
0.6
21
-102.066017178
0
LINE
5
5FB
100
AcDbEntity
8
1
6
ByLayer
62
256
370
-1
100
AcDbLine
10
0.6
20
-102.066017178
11
1.5
21
-102.066017178
0
LINE
5
5FC
100
AcDbEntity
8
1
6
ByLayer
62
256
370
-1
100
AcDbLine
10
0.6
20
-101.066017178
11
-0.6
21
-101.066017178
0
LINE
5
5FD
100
AcDbEntity
8
1
6
ByLayer
62
256
370
-1
100
AcDbLine
10
-0.6
20
-101.066017178
11
-0.6
21
-102.066017178
0
LINE
5
5FE
100
AcDbEntity
8
1
6
ByLayer
62
256
370
-1
100
AcDbLine
10
9.1066017178
20
-109.672618896
11
12.1066017178
21
-109.672618896
0
LINE
5
5FF
100
AcDbEntity
8
1
6
ByLayer
62
256
370
-1
100
AcDbLine
10
9.1066017178
20
-109.672618896
11
9.1066017178
21
-112.672618896
0
LINE
5
600
100
AcDbEntity
8
1
6
ByLayer
62
256
370
-1
100
AcDbLine
10
12.1066017178
20
-109.672618896
11
12.1066017178
21
-112.672618896
0
LINE
5
601
100
AcDbEntity
8
1
6
ByLayer
62
256
370
-1
100
AcDbLine
10
9.1066017178
20
-112.672618896
11
10.0066017178
21
-112.672618896
0
LINE
5
602
100
AcDbEntity
8
1
6
ByLayer
62
256
370
-1
100
AcDbLine
10
11.2066017178
20
-111.672618896
11
11.2066017178
21
-112.672618896
0
LINE
5
603
100
AcDbEntity
8
1
6
ByLayer
62
256
370
-1
100
AcDbLine
10
11.2066017178
20
-112.672618896
11
12.1066017178
21
-112.672618896
0
LINE
5
604
100
AcDbEntity
8
1
6
ByLayer
62
256
370
-1
100
AcDbLine
10
11.2066017178
20
-111.672618896
11
10.0066017178
21
-111.672618896
0
LINE
5
605
100
AcDbEntity
8
1
6
ByLayer
62
256
370
-1
100
AcDbLine
10
10.0066017178
20
-111.672618896
11
10.0066017178
21
-112.672618896
0
LINE
5
606
100
AcDbEntity
8
1
6
ByLayer
62
256
370
-1
100
AcDbLine
10
19.7132034356
20
-120.279220614
11
22.7132034356
21
-120.279220614
0
LINE
5
607
100
AcDbEntity
8
1
6
ByLayer
62
256
370
-1
100
AcDbLine
10
19.7132034356
20
-120.279220614
11
19.7132034356
21
-123.279220614
0
LINE
5
608
100
AcDbEntity
8
1
6
ByLayer
62
256
370
-1
100
AcDbLine
10
22.7132034356
20
-120.279220614
11
22.7132034356
21
-123.279220614
0
LINE
5
609
100
AcDbEntity
8
1
6
ByLayer
62
256
370
-1
100
AcDbLine
10
19.7132034356
20
-123.279220614
11
20.6132034356
21
-123.279220614
0
LINE
5
60A
100
AcDbEntity
8
1
6
ByLayer
62
256
370
-1
100
AcDbLine
10
21.8132034356
20
-122.279220614
11
21.8132034356
21
-123.279220614
0
LINE
5
60B
100
AcDbEntity
8
1
6
ByLayer
62
256
370
-1
100
AcDbLine
10
21.8132034356
20
-123.279220614
11
22.7132034356
21
-123.279220614
0
LINE
5
60C
100
AcDbEntity
8
1
6
ByLayer
62
256
370
-1
100
AcDbLine
10
21.8132034356
20
-122.279220614
11
20.6132034356
21
-122.279220614
0
LINE
5
60D
100
AcDbEntity
8
1
6
ByLayer
62
256
370
-1
100
AcDbLine
10
20.6132034356
20
-122.279220614
11
20.6132034356
21
-123.279220614
0
LINE
5
60E
100
AcDbEntity
8
1
6
ByLayer
62
256
370
-1
100
AcDbLine
10
-65.1396103068
20
-56.6396103068
11
-62.1396103068
21
-56.6396103068
0
LINE
5
60F
100
AcDbEntity
8
1
6
ByLayer
62
256
370
-1
100
AcDbLine
10
-65.1396103068
20
-56.6396103068
11
-65.1396103068
21
-59.6396103068
0
LINE
5
610
100
AcDbEntity
8
1
6
ByLayer
62
256
370
-1
100
AcDbLine
10
-62.1396103068
20
-56.6396103068
11
-62.1396103068
21
-59.6396103068
0
LINE
5
611
100
AcDbEntity
8
1
6
ByLayer
62
256
370
-1
100
AcDbLine
10
-65.1396103068
20
-59.6396103068
11
-64.2396103068
21
-59.6396103068
0
LINE
5
612
100
AcDbEntity
8
1
6
ByLayer
62
256
370
-1
100
AcDbLine
10
-63.0396103068
20
-58.6396103068
11
-63.0396103068
21
-59.6396103068
0
LINE
5
613
100
AcDbEntity
8
1
6
ByLayer
62
256
370
-1
100
AcDbLine
10
-63.0396103068
20
-59.6396103068
11
-62.1396103068
21
-59.6396103068
0
LINE
5
614
100
AcDbEntity
8
1
6
ByLayer
62
256
370
-1
100
AcDbLine
10
-63.0396103068
20
-58.6396103068
11
-64.2396103068
21
-58.6396103068
0
LINE
5
615
100
AcDbEntity
8
1
6
ByLayer
62
256
370
-1
100
AcDbLine
10
-64.2396103068
20
-58.6396103068
11
-64.2396103068
21
-59.6396103068
0
LINE
5
616
100
AcDbEntity
8
1
6
ByLayer
62
256
370
-1
100
AcDbLine
10
-54.533008589
20
-67.2462120246
11
-51.533008589
21
-67.2462120246
0
LINE
5
617
100
AcDbEntity
8
1
6
ByLayer
62
256
370
-1
100
AcDbLine
10
-54.533008589
20
-67.2462120246
11
-54.533008589
21
-70.2462120246
0
LINE
5
618
100
AcDbEntity
8
1
6
ByLayer
62
256
370
-1
100
AcDbLine
10
-51.533008589
20
-67.2462120246
11
-51.533008589
21
-70.2462120246
0
LINE
5
619
100
AcDbEntity
8
1
6
ByLayer
62
256
370
-1
100
AcDbLine
10
-54.533008589
20
-70.2462120246
11
-53.633008589
21
-70.2462120246
0
LINE
5
61A
100
AcDbEntity
8
1
6
ByLayer
62
256
370
-1
100
AcDbLine
10
-52.433008589
20
-69.2462120246
11
-52.433008589
21
-70.2462120246
0
LINE
5
61B
100
AcDbEntity
8
1
6
ByLayer
62
256
370
-1
100
AcDbLine
10
-52.433008589
20
-70.2462120246
11
-51.533008589
21
-70.2462120246
0
LINE
5
61C
100
AcDbEntity
8
1
6
ByLayer
62
256
370
-1
100
AcDbLine
10
-52.433008589
20
-69.2462120246
11
-53.633008589
21
-69.2462120246
0
LINE
5
61D
100
AcDbEntity
8
1
6
ByLayer
62
256
370
-1
100
AcDbLine
10
-53.633008589
20
-69.2462120246
11
-53.633008589
21
-70.2462120246
0
LINE
5
61E
100
AcDbEntity
8
1
6
ByLayer
62
256
370
-1
100
AcDbLine
10
-43.9264068712
20
-77.8528137424
11
-40.9264068712
21
-77.8528137424
0
LINE
5
61F
100
AcDbEntity
8
1
6
ByLayer
62
256
370
-1
100
AcDbLine
10
-43.9264068712
20
-77.8528137424
11
-43.9264068712
21
-80.8528137424
0
LINE
5
620
100
AcDbEntity
8
1
6
ByLayer
62
256
370
-1
100
AcDbLine
10
-40.9264068712
20
-77.8528137424
11
-40.9264068712
21
-80.8528137424
0
LINE
5
621
100
AcDbEntity
8
1
6
ByLayer
62
256
370
-1
100
AcDbLine
10
-43.9264068712
20
-80.8528137424
11
-43.0264068712
21
-80.8528137424
0
LINE
5
622
100
AcDbEntity
8
1
6
ByLayer
62
256
370
-1
100
AcDbLine
10
-41.8264068712
20
-79.8528137424
11
-41.8264068712
21
-80.8528137424
0
LINE
5
623
100
AcDbEntity
8
1
6
ByLayer
62
256
370
-1
100
AcDbLine
10
-41.8264068712
20
-80.8528137424
11
-40.9264068712
21
-80.8528137424
0
LINE
5
624
100
AcDbEntity
8
1
6
ByLayer
62
256
370
-1
100
AcDbLine
10
-41.8264068712
20
-79.8528137424
11
-43.0264068712
21
-79.8528137424
0
LINE
5
625
100
AcDbEntity
8
1
6
ByLayer
62
256
370
-1
100
AcDbLine
10
-43.0264068712
20
-79.8528137424
11
-43.0264068712
21
-80.8528137424
0
LINE
5
626
100
AcDbEntity
8
1
6
ByLayer
62
256
370
-1
100
AcDbLine
10
-33.3198051534
20
-88.4594154602
11
-30.3198051534
21
-88.4594154602
0
LINE
5
627
100
AcDbEntity
8
1
6
ByLayer
62
256
370
-1
100
AcDbLine
10
-33.3198051534
20
-88.4594154602
11
-33.3198051534
21
-91.4594154602
0
LINE
5
628
100
AcDbEntity
8
1
6
ByLayer
62
256
370
-1
100
AcDbLine
10
-30.3198051534
20
-88.4594154602
11
-30.3198051534
21
-91.4594154602
0
LINE
5
629
100
AcDbEntity
8
1
6
ByLayer
62
256
370
-1
100
AcDbLine
10
-33.3198051534
20
-91.4594154602
11
-32.4198051534
21
-91.4594154602
0
LINE
5
62A
100
AcDbEntity
8
1
6
ByLayer
62
256
370
-1
100
AcDbLine
10
-31.2198051534
20
-90.4594154602
11
-31.2198051534
21
-91.4594154602
0
LINE
5
62B
100
AcDbEntity
8
1
6
ByLayer
62
256
370
-1
100
AcDbLine
10
-31.2198051534
20
-91.4594154602
11
-30.3198051534
21
-91.4594154602
0
LINE
5
62C
100
AcDbEntity
8
1
6
ByLayer
62
256
370
-1
100
AcDbLine
10
-31.2198051534
20
-90.4594154602
11
-32.4198051534
21
-90.4594154602
0
LINE
5
62D
100
AcDbEntity
8
1
6
ByLayer
62
256
370
-1
100
AcDbLine
10
-32.4198051534
20
-90.4594154602
11
-32.4198051534
21
-91.4594154602
0
LINE
5
62E
100
AcDbEntity
8
1
6
ByLayer
62
256
370
-1
100
AcDbLine
10
-22.7132034356
20
-99.066017178
11
-19.7132034356
21
-99.066017178
0
LINE
5
62F
100
AcDbEntity
8
1
6
ByLayer
62
256
370
-1
100
AcDbLine
10
-22.7132034356
20
-99.066017178
11
-22.7132034356
21
-102.066017178
0
LINE
5
630
100
AcDbEntity
8
1
6
ByLayer
62
256
370
-1
100
AcDbLine
10
-19.7132034356
20
-99.066017178
11
-19.7132034356
21
-102.066017178
0
LINE
5
631
100
AcDbEntity
8
1
6
ByLayer
62
256
370
-1
100
AcDbLine
10
-22.7132034356
20
-102.066017178
11
-21.8132034356
21
-102.066017178
0
LINE
5
632
100
AcDbEntity
8
1
6
ByLayer
62
256
370
-1
100
AcDbLine
10
-20.6132034356
20
-101.066017178
11
-20.6132034356
21
-102.066017178
0
LINE
5
633
100
AcDbEntity
8
1
6
ByLayer
62
256
370
-1
100
AcDbLine
10
-20.6132034356
20
-102.066017178
11
-19.7132034356
21
-102.066017178
0
LINE
5
634
100
AcDbEntity
8
1
6
ByLayer
62
256
370
-1
100
AcDbLine
10
-20.6132034356
20
-101.066017178
11
-21.8132034356
21
-101.066017178
0
LINE
5
635
100
AcDbEntity
8
1
6
ByLayer
62
256
370
-1
100
AcDbLine
10
-21.8132034356
20
-101.066017178
11
-21.8132034356
21
-102.066017178
0
LINE
5
636
100
AcDbEntity
8
1
6
ByLayer
62
256
370
-1
100
AcDbLine
10
-12.1066017178
20
-109.672618896
11
-9.1066017178
21
-109.672618896
0
LINE
5
637
100
AcDbEntity
8
1
6
ByLayer
62
256
370
-1
100
AcDbLine
10
-12.1066017178
20
-109.672618896
11
-12.1066017178
21
-112.672618896
0
LINE
5
638
100
AcDbEntity
8
1
6
ByLayer
62
256
370
-1
100
AcDbLine
10
-9.1066017178
20
-109.672618896
11
-9.1066017178
21
-112.672618896
0
LINE
5
639
100
AcDbEntity
8
1
6
ByLayer
62
256
370
-1
100
AcDbLine
10
-12.1066017178
20
-112.672618896
11
-11.2066017178
21
-112.672618896
0
LINE
5
63A
100
AcDbEntity
8
1
6
ByLayer
62
256
370
-1
100
AcDbLine
10
-10.0066017178
20
-111.672618896
11
-10.0066017178
21
-112.672618896
0
LINE
5
63B
100
AcDbEntity
8
1
6
ByLayer
62
256
370
-1
100
AcDbLine
10
-10.0066017178
20
-112.672618896
11
-9.1066017178
21
-112.672618896
0
LINE
5
63C
100
AcDbEntity
8
1
6
ByLayer
62
256
370
-1
100
AcDbLine
10
-10.0066017178
20
-111.672618896
11
-11.2066017178
21
-111.672618896
0
LINE
5
63D
100
AcDbEntity
8
1
6
ByLayer
62
256
370
-1
100
AcDbLine
10
-11.2066017178
20
-111.672618896
11
-11.2066017178
21
-112.672618896
0
LINE
5
63E
100
AcDbEntity
8
1
6
ByLayer
62
256
370
-1
100
AcDbLine
10
-1.5
20
-120.279220614
11
1.5
21
-120.279220614
0
LINE
5
63F
100
AcDbEntity
8
1
6
ByLayer
62
256
370
-1
100
AcDbLine
10
-1.5
20
-120.279220614
11
-1.5
21
-123.279220614
0
LINE
5
640
100
AcDbEntity
8
1
6
ByLayer
62
256
370
-1
100
AcDbLine
10
1.5
20
-120.279220614
11
1.5
21
-123.279220614
0
LINE
5
641
100
AcDbEntity
8
1
6
ByLayer
62
256
370
-1
100
AcDbLine
10
-1.5
20
-123.279220614
11
-0.6
21
-123.279220614
0
LINE
5
642
100
AcDbEntity
8
1
6
ByLayer
62
256
370
-1
100
AcDbLine
10
0.6
20
-122.279220614
11
0.6
21
-123.279220614
0
LINE
5
643
100
AcDbEntity
8
1
6
ByLayer
62
256
370
-1
100
AcDbLine
10
0.6
20
-123.279220614
11
1.5
21
-123.279220614
0
LINE
5
644
100
AcDbEntity
8
1
6
ByLayer
62
256
370
-1
100
AcDbLine
10
0.6
20
-122.279220614
11
-0.6
21
-122.279220614
0
LINE
5
645
100
AcDbEntity
8
1
6
ByLayer
62
256
370
-1
100
AcDbLine
10
-0.6
20
-122.279220614
11
-0.6
21
-123.279220614
0
LINE
5
646
100
AcDbEntity
8
1
6
ByLayer
62
256
370
-1
100
AcDbLine
10
9.1066017178
20
-130.885822331
11
12.1066017178
21
-130.885822331
0
LINE
5
647
100
AcDbEntity
8
1
6
ByLayer
62
256
370
-1
100
AcDbLine
10
9.1066017178
20
-130.885822331
11
9.1066017178
21
-133.885822331
0
LINE
5
648
100
AcDbEntity
8
1
6
ByLayer
62
256
370
-1
100
AcDbLine
10
12.1066017178
20
-130.885822331
11
12.1066017178
21
-133.885822331
0
LINE
5
649
100
AcDbEntity
8
1
6
ByLayer
62
256
370
-1
100
AcDbLine
10
9.1066017178
20
-133.885822331
11
10.0066017178
21
-133.885822331
0
LINE
5
64A
100
AcDbEntity
8
1
6
ByLayer
62
256
370
-1
100
AcDbLine
10
11.2066017178
20
-132.885822331
11
11.2066017178
21
-133.885822331
0
LINE
5
64B
100
AcDbEntity
8
1
6
ByLayer
62
256
370
-1
100
AcDbLine
10
11.2066017178
20
-133.885822331
11
12.1066017178
21
-133.885822331
0
LINE
5
64C
100
AcDbEntity
8
1
6
ByLayer
62
256
370
-1
100
AcDbLine
10
11.2066017178
20
-132.885822331
11
10.0066017178
21
-132.885822331
0
LINE
5
64D
100
AcDbEntity
8
1
6
ByLayer
62
256
370
-1
100
AcDbLine
10
10.0066017178
20
-132.885822331
11
10.0066017178
21
-133.885822331
0
LINE
5
64E
100
AcDbEntity
8
1
6
ByLayer
62
256
370
-1
100
AcDbLine
10
-75.7462120246
20
-67.2462120246
11
-72.7462120246
21
-67.2462120246
0
LINE
5
64F
100
AcDbEntity
8
1
6
ByLayer
62
256
370
-1
100
AcDbLine
10
-75.7462120246
20
-67.2462120246
11
-75.7462120246
21
-70.2462120246
0
LINE
5
650
100
AcDbEntity
8
1
6
ByLayer
62
256
370
-1
100
AcDbLine
10
-72.7462120246
20
-67.2462120246
11
-72.7462120246
21
-70.2462120246
0
LINE
5
651
100
AcDbEntity
8
1
6
ByLayer
62
256
370
-1
100
AcDbLine
10
-75.7462120246
20
-70.2462120246
11
-74.8462120246
21
-70.2462120246
0
LINE
5
652
100
AcDbEntity
8
1
6
ByLayer
62
256
370
-1
100
AcDbLine
10
-73.6462120246
20
-69.2462120246
11
-73.6462120246
21
-70.2462120246
0
LINE
5
653
100
AcDbEntity
8
1
6
ByLayer
62
256
370
-1
100
AcDbLine
10
-73.6462120246
20
-70.2462120246
11
-72.7462120246
21
-70.2462120246
0
LINE
5
654
100
AcDbEntity
8
1
6
ByLayer
62
256
370
-1
100
AcDbLine
10
-73.6462120246
20
-69.2462120246
11
-74.8462120246
21
-69.2462120246
0
LINE
5
655
100
AcDbEntity
8
1
6
ByLayer
62
256
370
-1
100
AcDbLine
10
-74.8462120246
20
-69.2462120246
11
-74.8462120246
21
-70.2462120246
0
LINE
5
656
100
AcDbEntity
8
1
6
ByLayer
62
256
370
-1
100
AcDbLine
10
-65.1396103068
20
-77.8528137424
11
-62.1396103068
21
-77.8528137424
0
LINE
5
657
100
AcDbEntity
8
1
6
ByLayer
62
256
370
-1
100
AcDbLine
10
-65.1396103068
20
-77.8528137424
11
-65.1396103068
21
-80.8528137424
0
LINE
5
658
100
AcDbEntity
8
1
6
ByLayer
62
256
370
-1
100
AcDbLine
10
-62.1396103068
20
-77.8528137424
11
-62.1396103068
21
-80.8528137424
0
LINE
5
659
100
AcDbEntity
8
1
6
ByLayer
62
256
370
-1
100
AcDbLine
10
-65.1396103068
20
-80.8528137424
11
-64.2396103068
21
-80.8528137424
0
LINE
5
65A
100
AcDbEntity
8
1
6
ByLayer
62
256
370
-1
100
AcDbLine
10
-63.0396103068
20
-79.8528137424
11
-63.0396103068
21
-80.8528137424
0
LINE
5
65B
100
AcDbEntity
8
1
6
ByLayer
62
256
370
-1
100
AcDbLine
10
-63.0396103068
20
-80.8528137424
11
-62.1396103068
21
-80.8528137424
0
LINE
5
65C
100
AcDbEntity
8
1
6
ByLayer
62
256
370
-1
100
AcDbLine
10
-63.0396103068
20
-79.8528137424
11
-64.2396103068
21
-79.8528137424
0
LINE
5
65D
100
AcDbEntity
8
1
6
ByLayer
62
256
370
-1
100
AcDbLine
10
-64.2396103068
20
-79.8528137424
11
-64.2396103068
21
-80.8528137424
0
LINE
5
65E
100
AcDbEntity
8
1
6
ByLayer
62
256
370
-1
100
AcDbLine
10
-54.533008589
20
-88.4594154602
11
-51.533008589
21
-88.4594154602
0
LINE
5
65F
100
AcDbEntity
8
1
6
ByLayer
62
256
370
-1
100
AcDbLine
10
-54.533008589
20
-88.4594154602
11
-54.533008589
21
-91.4594154602
0
LINE
5
660
100
AcDbEntity
8
1
6
ByLayer
62
256
370
-1
100
AcDbLine
10
-51.533008589
20
-88.4594154602
11
-51.533008589
21
-91.4594154602
0
LINE
5
661
100
AcDbEntity
8
1
6
ByLayer
62
256
370
-1
100
AcDbLine
10
-54.533008589
20
-91.4594154602
11
-53.633008589
21
-91.4594154602
0
LINE
5
662
100
AcDbEntity
8
1
6
ByLayer
62
256
370
-1
100
AcDbLine
10
-52.433008589
20
-90.4594154602
11
-52.433008589
21
-91.4594154602
0
LINE
5
663
100
AcDbEntity
8
1
6
ByLayer
62
256
370
-1
100
AcDbLine
10
-52.433008589
20
-91.4594154602
11
-51.533008589
21
-91.4594154602
0
LINE
5
664
100
AcDbEntity
8
1
6
ByLayer
62
256
370
-1
100
AcDbLine
10
-52.433008589
20
-90.4594154602
11
-53.633008589
21
-90.4594154602
0
LINE
5
665
100
AcDbEntity
8
1
6
ByLayer
62
256
370
-1
100
AcDbLine
10
-53.633008589
20
-90.4594154602
11
-53.633008589
21
-91.4594154602
0
LINE
5
666
100
AcDbEntity
8
1
6
ByLayer
62
256
370
-1
100
AcDbLine
10
-43.9264068712
20
-99.066017178
11
-40.9264068712
21
-99.066017178
0
LINE
5
667
100
AcDbEntity
8
1
6
ByLayer
62
256
370
-1
100
AcDbLine
10
-43.9264068712
20
-99.066017178
11
-43.9264068712
21
-102.066017178
0
LINE
5
668
100
AcDbEntity
8
1
6
ByLayer
62
256
370
-1
100
AcDbLine
10
-40.9264068712
20
-99.066017178
11
-40.9264068712
21
-102.066017178
0
LINE
5
669
100
AcDbEntity
8
1
6
ByLayer
62
256
370
-1
100
AcDbLine
10
-43.9264068712
20
-102.066017178
11
-43.0264068712
21
-102.066017178
0
LINE
5
66A
100
AcDbEntity
8
1
6
ByLayer
62
256
370
-1
100
AcDbLine
10
-41.8264068712
20
-101.066017178
11
-41.8264068712
21
-102.066017178
0
LINE
5
66B
100
AcDbEntity
8
1
6
ByLayer
62
256
370
-1
100
AcDbLine
10
-41.8264068712
20
-102.066017178
11
-40.9264068712
21
-102.066017178
0
LINE
5
66C
100
AcDbEntity
8
1
6
ByLayer
62
256
370
-1
100
AcDbLine
10
-41.8264068712
20
-101.066017178
11
-43.0264068712
21
-101.066017178
0
LINE
5
66D
100
AcDbEntity
8
1
6
ByLayer
62
256
370
-1
100
AcDbLine
10
-43.0264068712
20
-101.066017178
11
-43.0264068712
21
-102.066017178
0
LINE
5
66E
100
AcDbEntity
8
1
6
ByLayer
62
256
370
-1
100
AcDbLine
10
-33.3198051534
20
-109.672618896
11
-30.3198051534
21
-109.672618896
0
LINE
5
66F
100
AcDbEntity
8
1
6
ByLayer
62
256
370
-1
100
AcDbLine
10
-33.3198051534
20
-109.672618896
11
-33.3198051534
21
-112.672618896
0
LINE
5
670
100
AcDbEntity
8
1
6
ByLayer
62
256
370
-1
100
AcDbLine
10
-30.3198051534
20
-109.672618896
11
-30.3198051534
21
-112.672618896
0
LINE
5
671
100
AcDbEntity
8
1
6
ByLayer
62
256
370
-1
100
AcDbLine
10
-33.3198051534
20
-112.672618896
11
-32.4198051534
21
-112.672618896
0
LINE
5
672
100
AcDbEntity
8
1
6
ByLayer
62
256
370
-1
100
AcDbLine
10
-31.2198051534
20
-111.672618896
11
-31.2198051534
21
-112.672618896
0
LINE
5
673
100
AcDbEntity
8
1
6
ByLayer
62
256
370
-1
100
AcDbLine
10
-31.2198051534
20
-112.672618896
11
-30.3198051534
21
-112.672618896
0
LINE
5
674
100
AcDbEntity
8
1
6
ByLayer
62
256
370
-1
100
AcDbLine
10
-31.2198051534
20
-111.672618896
11
-32.4198051534
21
-111.672618896
0
LINE
5
675
100
AcDbEntity
8
1
6
ByLayer
62
256
370
-1
100
AcDbLine
10
-32.4198051534
20
-111.672618896
11
-32.4198051534
21
-112.672618896
0
LINE
5
676
100
AcDbEntity
8
1
6
ByLayer
62
256
370
-1
100
AcDbLine
10
-22.7132034356
20
-120.279220614
11
-19.7132034356
21
-120.279220614
0
LINE
5
677
100
AcDbEntity
8
1
6
ByLayer
62
256
370
-1
100
AcDbLine
10
-22.7132034356
20
-120.279220614
11
-22.7132034356
21
-123.279220614
0
LINE
5
678
100
AcDbEntity
8
1
6
ByLayer
62
256
370
-1
100
AcDbLine
10
-19.7132034356
20
-120.279220614
11
-19.7132034356
21
-123.279220614
0
LINE
5
679
100
AcDbEntity
8
1
6
ByLayer
62
256
370
-1
100
AcDbLine
10
-22.7132034356
20
-123.279220614
11
-21.8132034356
21
-123.279220614
0
LINE
5
67A
100
AcDbEntity
8
1
6
ByLayer
62
256
370
-1
100
AcDbLine
10
-20.6132034356
20
-122.279220614
11
-20.6132034356
21
-123.279220614
0
LINE
5
67B
100
AcDbEntity
8
1
6
ByLayer
62
256
370
-1
100
AcDbLine
10
-20.6132034356
20
-123.279220614
11
-19.7132034356
21
-123.279220614
0
LINE
5
67C
100
AcDbEntity
8
1
6
ByLayer
62
256
370
-1
100
AcDbLine
10
-20.6132034356
20
-122.279220614
11
-21.8132034356
21
-122.279220614
0
LINE
5
67D
100
AcDbEntity
8
1
6
ByLayer
62
256
370
-1
100
AcDbLine
10
-21.8132034356
20
-122.279220614
11
-21.8132034356
21
-123.279220614
0
LINE
5
67E
100
AcDbEntity
8
1
6
ByLayer
62
256
370
-1
100
AcDbLine
10
-12.1066017178
20
-130.885822331
11
-9.1066017178
21
-130.885822331
0
LINE
5
67F
100
AcDbEntity
8
1
6
ByLayer
62
256
370
-1
100
AcDbLine
10
-12.1066017178
20
-130.885822331
11
-12.1066017178
21
-133.885822331
0
LINE
5
680
100
AcDbEntity
8
1
6
ByLayer
62
256
370
-1
100
AcDbLine
10
-9.1066017178
20
-130.885822331
11
-9.1066017178
21
-133.885822331
0
LINE
5
681
100
AcDbEntity
8
1
6
ByLayer
62
256
370
-1
100
AcDbLine
10
-12.1066017178
20
-133.885822331
11
-11.2066017178
21
-133.885822331
0
LINE
5
682
100
AcDbEntity
8
1
6
ByLayer
62
256
370
-1
100
AcDbLine
10
-10.0066017178
20
-132.885822331
11
-10.0066017178
21
-133.885822331
0
LINE
5
683
100
AcDbEntity
8
1
6
ByLayer
62
256
370
-1
100
AcDbLine
10
-10.0066017178
20
-133.885822331
11
-9.1066017178
21
-133.885822331
0
LINE
5
684
100
AcDbEntity
8
1
6
ByLayer
62
256
370
-1
100
AcDbLine
10
-10.0066017178
20
-132.885822331
11
-11.2066017178
21
-132.885822331
0
LINE
5
685
100
AcDbEntity
8
1
6
ByLayer
62
256
370
-1
100
AcDbLine
10
-11.2066017178
20
-132.885822331
11
-11.2066017178
21
-133.885822331
0
LINE
5
686
100
AcDbEntity
8
1
6
ByLayer
62
256
370
-1
100
AcDbLine
10
-1.5
20
-141.492424049
11
1.5
21
-141.492424049
0
LINE
5
687
100
AcDbEntity
8
1
6
ByLayer
62
256
370
-1
100
AcDbLine
10
-1.5
20
-141.492424049
11
-1.5
21
-144.492424049
0
LINE
5
688
100
AcDbEntity
8
1
6
ByLayer
62
256
370
-1
100
AcDbLine
10
1.5
20
-141.492424049
11
1.5
21
-144.492424049
0
LINE
5
689
100
AcDbEntity
8
1
6
ByLayer
62
256
370
-1
100
AcDbLine
10
-1.5
20
-144.492424049
11
-0.6
21
-144.492424049
0
LINE
5
68A
100
AcDbEntity
8
1
6
ByLayer
62
256
370
-1
100
AcDbLine
10
0.6
20
-143.492424049
11
0.6
21
-144.492424049
0
LINE
5
68B
100
AcDbEntity
8
1
6
ByLayer
62
256
370
-1
100
AcDbLine
10
0.6
20
-144.492424049
11
1.5
21
-144.492424049
0
LINE
5
68C
100
AcDbEntity
8
1
6
ByLayer
62
256
370
-1
100
AcDbLine
10
0.6
20
-143.492424049
11
-0.6
21
-143.492424049
0
LINE
5
68D
100
AcDbEntity
8
1
6
ByLayer
62
256
370
-1
100
AcDbLine
10
-0.6
20
-143.492424049
11
-0.6
21
-144.492424049
0
LINE
5
68E
100
AcDbEntity
8
anode-cathode-hole
6
ByLayer
62
256
370
-1
100
AcDbLine
10
79.963369312
20
-79.1148411747
11
1.54898625663
21
-0.700458119208
0
LINE
5
68F
100
AcDbEntity
8
anode-cathode-hole
6
ByLayer
62
256
370
-1
100
AcDbLine
10
79.1148411747
20
-79.963369312
11
0.700458119208
21
-1.54898625663
0
LINE
5
690
100
AcDbEntity
8
anode-cathode-hole
6
ByLayer
62
256
370
-1
100
AcDbLine
10
79.963369312
20
-79.1148411747
11
79.1148411747
21
-79.963369312
0
LINE
5
691
100
AcDbEntity
8
anode-cathode-hole
6
ByLayer
62
256
370
-1
100
AcDbLine
10
10.0066017178
20
-9.01600434574
11
11.2066017178
21
-9.01600434574
0
LINE
5
692
100
AcDbEntity
8
anode-cathode-hole
6
ByLayer
62
256
370
-1
100
AcDbLine
10
11.2066017178
20
-5.6066017178
11
11.2066017178
21
-9.01600434574
0
LINE
5
693
100
AcDbEntity
8
anode-cathode-hole
6
ByLayer
62
256
370
-1
100
AcDbLine
10
10.0066017178
20
-5.6066017178
11
10.0066017178
21
-9.01600434574
0
LINE
5
694
100
AcDbEntity
8
anode-cathode-hole
6
ByLayer
62
256
370
-1
100
AcDbLine
10
10.0066017178
20
-5.6066017178
11
11.2066017178
21
-5.6066017178
0
LINE
5
695
100
AcDbEntity
8
anode-cathode-hole
6
ByLayer
62
256
370
-1
100
AcDbLine
10
20.6132034356
20
-19.6226060635
11
21.8132034356
21
-19.6226060635
0
LINE
5
696
100
AcDbEntity
8
anode-cathode-hole
6
ByLayer
62
256
370
-1
100
AcDbLine
10
21.8132034356
20
-16.2132034356
11
21.8132034356
21
-19.6226060635
0
LINE
5
697
100
AcDbEntity
8
anode-cathode-hole
6
ByLayer
62
256
370
-1
100
AcDbLine
10
20.6132034356
20
-16.2132034356
11
20.6132034356
21
-19.6226060635
0
LINE
5
698
100
AcDbEntity
8
anode-cathode-hole
6
ByLayer
62
256
370
-1
100
AcDbLine
10
20.6132034356
20
-16.2132034356
11
21.8132034356
21
-16.2132034356
0
LINE
5
699
100
AcDbEntity
8
anode-cathode-hole
6
ByLayer
62
256
370
-1
100
AcDbLine
10
31.2198051534
20
-30.2292077813
11
32.4198051534
21
-30.2292077813
0
LINE
5
69A
100
AcDbEntity
8
anode-cathode-hole
6
ByLayer
62
256
370
-1
100
AcDbLine
10
32.4198051534
20
-26.8198051534
11
32.4198051534
21
-30.2292077813
0
LINE
5
69B
100
AcDbEntity
8
anode-cathode-hole
6
ByLayer
62
256
370
-1
100
AcDbLine
10
31.2198051534
20
-26.8198051534
11
31.2198051534
21
-30.2292077813
0
LINE
5
69C
100
AcDbEntity
8
anode-cathode-hole
6
ByLayer
62
256
370
-1
100
AcDbLine
10
31.2198051534
20
-26.8198051534
11
32.4198051534
21
-26.8198051534
0
LINE
5
69D
100
AcDbEntity
8
anode-cathode-hole
6
ByLayer
62
256
370
-1
100
AcDbLine
10
41.8264068712
20
-40.8358094991
11
43.0264068712
21
-40.8358094991
0
LINE
5
69E
100
AcDbEntity
8
anode-cathode-hole
6
ByLayer
62
256
370
-1
100
AcDbLine
10
43.0264068712
20
-37.4264068712
11
43.0264068712
21
-40.8358094991
0
LINE
5
69F
100
AcDbEntity
8
anode-cathode-hole
6
ByLayer
62
256
370
-1
100
AcDbLine
10
41.8264068712
20
-37.4264068712
11
41.8264068712
21
-40.8358094991
0
LINE
5
6A0
100
AcDbEntity
8
anode-cathode-hole
6
ByLayer
62
256
370
-1
100
AcDbLine
10
41.8264068712
20
-37.4264068712
11
43.0264068712
21
-37.4264068712
0
LINE
5
6A1
100
AcDbEntity
8
anode-cathode-hole
6
ByLayer
62
256
370
-1
100
AcDbLine
10
52.433008589
20
-51.4424112169
11
53.633008589
21
-51.4424112169
0
LINE
5
6A2
100
AcDbEntity
8
anode-cathode-hole
6
ByLayer
62
256
370
-1
100
AcDbLine
10
53.633008589
20
-48.033008589
11
53.633008589
21
-51.4424112169
0
LINE
5
6A3
100
AcDbEntity
8
anode-cathode-hole
6
ByLayer
62
256
370
-1
100
AcDbLine
10
52.433008589
20
-48.033008589
11
52.433008589
21
-51.4424112169
0
LINE
5
6A4
100
AcDbEntity
8
anode-cathode-hole
6
ByLayer
62
256
370
-1
100
AcDbLine
10
52.433008589
20
-48.033008589
11
53.633008589
21
-48.033008589
0
LINE
5
6A5
100
AcDbEntity
8
anode-cathode-hole
6
ByLayer
62
256
370
-1
100
AcDbLine
10
63.0396103068
20
-62.0490129347
11
64.2396103068
21
-62.0490129347
0
LINE
5
6A6
100
AcDbEntity
8
anode-cathode-hole
6
ByLayer
62
256
370
-1
100
AcDbLine
10
64.2396103068
20
-58.6396103068
11
64.2396103068
21
-62.0490129347
0
LINE
5
6A7
100
AcDbEntity
8
anode-cathode-hole
6
ByLayer
62
256
370
-1
100
AcDbLine
10
63.0396103068
20
-58.6396103068
11
63.0396103068
21
-62.0490129347
0
LINE
5
6A8
100
AcDbEntity
8
anode-cathode-hole
6
ByLayer
62
256
370
-1
100
AcDbLine
10
63.0396103068
20
-58.6396103068
11
64.2396103068
21
-58.6396103068
0
LINE
5
6A9
100
AcDbEntity
8
anode-cathode-hole
6
ByLayer
62
256
370
-1
100
AcDbLine
10
73.6462120246
20
-72.6556146525
11
74.8462120246
21
-72.6556146525
0
LINE
5
6AA
100
AcDbEntity
8
anode-cathode-hole
6
ByLayer
62
256
370
-1
100
AcDbLine
10
74.8462120246
20
-69.2462120246
11
74.8462120246
21
-72.6556146525
0
LINE
5
6AB
100
AcDbEntity
8
anode-cathode-hole
6
ByLayer
62
256
370
-1
100
AcDbLine
10
73.6462120246
20
-69.2462120246
11
73.6462120246
21
-72.6556146525
0
LINE
5
6AC
100
AcDbEntity
8
anode-cathode-hole
6
ByLayer
62
256
370
-1
100
AcDbLine
10
73.6462120246
20
-69.2462120246
11
74.8462120246
21
-69.2462120246
0
LINE
5
6AD
100
AcDbEntity
8
anode-cathode-hole
6
ByLayer
62
256
370
-1
100
AcDbLine
10
-11.2066017178
20
-9.01600434574
11
-10.0066017178
21
-9.01600434574
0
LINE
5
6AE
100
AcDbEntity
8
anode-cathode-hole
6
ByLayer
62
256
370
-1
100
AcDbLine
10
-10.0066017178
20
-5.6066017178
11
-10.0066017178
21
-9.01600434574
0
LINE
5
6AF
100
AcDbEntity
8
anode-cathode-hole
6
ByLayer
62
256
370
-1
100
AcDbLine
10
-11.2066017178
20
-5.6066017178
11
-11.2066017178
21
-9.01600434574
0
LINE
5
6B0
100
AcDbEntity
8
anode-cathode-hole
6
ByLayer
62
256
370
-1
100
AcDbLine
10
-11.2066017178
20
-5.6066017178
11
-10.0066017178
21
-5.6066017178
0
LINE
5
6B1
100
AcDbEntity
8
anode-cathode-hole
6
ByLayer
62
256
370
-1
100
AcDbLine
10
-9.05761546117
20
-11.307059837
11
-9.90614359859
21
-12.1555879744
0
LINE
5
6B2
100
AcDbEntity
8
anode-cathode-hole
6
ByLayer
62
256
370
-1
100
AcDbLine
10
69.3567675942
20
-89.7214428925
11
-9.05761546117
21
-11.307059837
0
LINE
5
6B3
100
AcDbEntity
8
anode-cathode-hole
6
ByLayer
62
256
370
-1
100
AcDbLine
10
68.5082394569
20
-90.5699710298
11
-9.90614359859
21
-12.1555879744
0
LINE
5
6B4
100
AcDbEntity
8
anode-cathode-hole
6
ByLayer
62
256
370
-1
100
AcDbLine
10
69.3567675942
20
-89.7214428925
11
68.5082394569
21
-90.5699710298
0
LINE
5
6B5
100
AcDbEntity
8
anode-cathode-hole
6
ByLayer
62
256
370
-1
100
AcDbLine
10
-0.6
20
-19.6226060635
11
0.6
21
-19.6226060635
0
LINE
5
6B6
100
AcDbEntity
8
anode-cathode-hole
6
ByLayer
62
256
370
-1
100
AcDbLine
10
0.6
20
-16.2132034356
11
0.6
21
-19.6226060635
0
LINE
5
6B7
100
AcDbEntity
8
anode-cathode-hole
6
ByLayer
62
256
370
-1
100
AcDbLine
10
-0.6
20
-16.2132034356
11
-0.6
21
-19.6226060635
0
LINE
5
6B8
100
AcDbEntity
8
anode-cathode-hole
6
ByLayer
62
256
370
-1
100
AcDbLine
10
-0.6
20
-16.2132034356
11
0.6
21
-16.2132034356
0
LINE
5
6B9
100
AcDbEntity
8
anode-cathode-hole
6
ByLayer
62
256
370
-1
100
AcDbLine
10
10.0066017178
20
-30.2292077813
11
11.2066017178
21
-30.2292077813
0
LINE
5
6BA
100
AcDbEntity
8
anode-cathode-hole
6
ByLayer
62
256
370
-1
100
AcDbLine
10
11.2066017178
20
-26.8198051534
11
11.2066017178
21
-30.2292077813
0
LINE
5
6BB
100
AcDbEntity
8
anode-cathode-hole
6
ByLayer
62
256
370
-1
100
AcDbLine
10
10.0066017178
20
-26.8198051534
11
10.0066017178
21
-30.2292077813
0
LINE
5
6BC
100
AcDbEntity
8
anode-cathode-hole
6
ByLayer
62
256
370
-1
100
AcDbLine
10
10.0066017178
20
-26.8198051534
11
11.2066017178
21
-26.8198051534
0
LINE
5
6BD
100
AcDbEntity
8
anode-cathode-hole
6
ByLayer
62
256
370
-1
100
AcDbLine
10
20.6132034356
20
-40.8358094991
11
21.8132034356
21
-40.8358094991
0
LINE
5
6BE
100
AcDbEntity
8
anode-cathode-hole
6
ByLayer
62
256
370
-1
100
AcDbLine
10
21.8132034356
20
-37.4264068712
11
21.8132034356
21
-40.8358094991
0
LINE
5
6BF
100
AcDbEntity
8
anode-cathode-hole
6
ByLayer
62
256
370
-1
100
AcDbLine
10
20.6132034356
20
-37.4264068712
11
20.6132034356
21
-40.8358094991
0
LINE
5
6C0
100
AcDbEntity
8
anode-cathode-hole
6
ByLayer
62
256
370
-1
100
AcDbLine
10
20.6132034356
20
-37.4264068712
11
21.8132034356
21
-37.4264068712
0
LINE
5
6C1
100
AcDbEntity
8
anode-cathode-hole
6
ByLayer
62
256
370
-1
100
AcDbLine
10
31.2198051534
20
-51.4424112169
11
32.4198051534
21
-51.4424112169
0
LINE
5
6C2
100
AcDbEntity
8
anode-cathode-hole
6
ByLayer
62
256
370
-1
100
AcDbLine
10
32.4198051534
20
-48.033008589
11
32.4198051534
21
-51.4424112169
0
LINE
5
6C3
100
AcDbEntity
8
anode-cathode-hole
6
ByLayer
62
256
370
-1
100
AcDbLine
10
31.2198051534
20
-48.033008589
11
31.2198051534
21
-51.4424112169
0
LINE
5
6C4
100
AcDbEntity
8
anode-cathode-hole
6
ByLayer
62
256
370
-1
100
AcDbLine
10
31.2198051534
20
-48.033008589
11
32.4198051534
21
-48.033008589
0
LINE
5
6C5
100
AcDbEntity
8
anode-cathode-hole
6
ByLayer
62
256
370
-1
100
AcDbLine
10
41.8264068712
20
-62.0490129347
11
43.0264068712
21
-62.0490129347
0
LINE
5
6C6
100
AcDbEntity
8
anode-cathode-hole
6
ByLayer
62
256
370
-1
100
AcDbLine
10
43.0264068712
20
-58.6396103068
11
43.0264068712
21
-62.0490129347
0
LINE
5
6C7
100
AcDbEntity
8
anode-cathode-hole
6
ByLayer
62
256
370
-1
100
AcDbLine
10
41.8264068712
20
-58.6396103068
11
41.8264068712
21
-62.0490129347
0
LINE
5
6C8
100
AcDbEntity
8
anode-cathode-hole
6
ByLayer
62
256
370
-1
100
AcDbLine
10
41.8264068712
20
-58.6396103068
11
43.0264068712
21
-58.6396103068
0
LINE
5
6C9
100
AcDbEntity
8
anode-cathode-hole
6
ByLayer
62
256
370
-1
100
AcDbLine
10
52.433008589
20
-72.6556146525
11
53.633008589
21
-72.6556146525
0
LINE
5
6CA
100
AcDbEntity
8
anode-cathode-hole
6
ByLayer
62
256
370
-1
100
AcDbLine
10
53.633008589
20
-69.2462120246
11
53.633008589
21
-72.6556146525
0
LINE
5
6CB
100
AcDbEntity
8
anode-cathode-hole
6
ByLayer
62
256
370
-1
100
AcDbLine
10
52.433008589
20
-69.2462120246
11
52.433008589
21
-72.6556146525
0
LINE
5
6CC
100
AcDbEntity
8
anode-cathode-hole
6
ByLayer
62
256
370
-1
100
AcDbLine
10
52.433008589
20
-69.2462120246
11
53.633008589
21
-69.2462120246
0
LINE
5
6CD
100
AcDbEntity
8
anode-cathode-hole
6
ByLayer
62
256
370
-1
100
AcDbLine
10
63.0396103068
20
-83.2622163703
11
64.2396103068
21
-83.2622163703
0
LINE
5
6CE
100
AcDbEntity
8
anode-cathode-hole
6
ByLayer
62
256
370
-1
100
AcDbLine
10
64.2396103068
20
-79.8528137424
11
64.2396103068
21
-83.2622163703
0
LINE
5
6CF
100
AcDbEntity
8
anode-cathode-hole
6
ByLayer
62
256
370
-1
100
AcDbLine
10
63.0396103068
20
-79.8528137424
11
63.0396103068
21
-83.2622163703
0
LINE
5
6D0
100
AcDbEntity
8
anode-cathode-hole
6
ByLayer
62
256
370
-1
100
AcDbLine
10
63.0396103068
20
-79.8528137424
11
64.2396103068
21
-79.8528137424
0
LINE
5
6D1
100
AcDbEntity
8
anode-cathode-hole
6
ByLayer
62
256
370
-1
100
AcDbLine
10
-21.8132034356
20
-19.6226060635
11
-20.6132034356
21
-19.6226060635
0
LINE
5
6D2
100
AcDbEntity
8
anode-cathode-hole
6
ByLayer
62
256
370
-1
100
AcDbLine
10
-20.6132034356
20
-16.2132034356
11
-20.6132034356
21
-19.6226060635
0
LINE
5
6D3
100
AcDbEntity
8
anode-cathode-hole
6
ByLayer
62
256
370
-1
100
AcDbLine
10
-21.8132034356
20
-16.2132034356
11
-21.8132034356
21
-19.6226060635
0
LINE
5
6D4
100
AcDbEntity
8
anode-cathode-hole
6
ByLayer
62
256
370
-1
100
AcDbLine
10
-21.8132034356
20
-16.2132034356
11
-20.6132034356
21
-16.2132034356
0
LINE
5
6D5
100
AcDbEntity
8
anode-cathode-hole
6
ByLayer
62
256
370
-1
100
AcDbLine
10
-19.664217179
20
-21.9136615548
11
-20.5127453164
21
-22.7621896922
0
LINE
5
6D6
100
AcDbEntity
8
anode-cathode-hole
6
ByLayer
62
256
370
-1
100
AcDbLine
10
58.7501658764
20
-100.32804461
11
-19.664217179
21
-21.9136615548
0
LINE
5
6D7
100
AcDbEntity
8
anode-cathode-hole
6
ByLayer
62
256
370
-1
100
AcDbLine
10
57.9016377391
20
-101.176572748
11
-20.5127453164
21
-22.7621896922
0
LINE
5
6D8
100
AcDbEntity
8
anode-cathode-hole
6
ByLayer
62
256
370
-1
100
AcDbLine
10
58.7501658764
20
-100.32804461
11
57.9016377391
21
-101.176572748
0
LINE
5
6D9
100
AcDbEntity
8
anode-cathode-hole
6
ByLayer
62
256
370
-1
100
AcDbLine
10
-11.2066017178
20
-30.2292077813
11
-10.0066017178
21
-30.2292077813
0
LINE
5
6DA
100
AcDbEntity
8
anode-cathode-hole
6
ByLayer
62
256
370
-1
100
AcDbLine
10
-10.0066017178
20
-26.8198051534
11
-10.0066017178
21
-30.2292077813
0
LINE
5
6DB
100
AcDbEntity
8
anode-cathode-hole
6
ByLayer
62
256
370
-1
100
AcDbLine
10
-11.2066017178
20
-26.8198051534
11
-11.2066017178
21
-30.2292077813
0
LINE
5
6DC
100
AcDbEntity
8
anode-cathode-hole
6
ByLayer
62
256
370
-1
100
AcDbLine
10
-11.2066017178
20
-26.8198051534
11
-10.0066017178
21
-26.8198051534
0
LINE
5
6DD
100
AcDbEntity
8
anode-cathode-hole
6
ByLayer
62
256
370
-1
100
AcDbLine
10
-0.6
20
-40.8358094991
11
0.6
21
-40.8358094991
0
LINE
5
6DE
100
AcDbEntity
8
anode-cathode-hole
6
ByLayer
62
256
370
-1
100
AcDbLine
10
0.6
20
-37.4264068712
11
0.6
21
-40.8358094991
0
LINE
5
6DF
100
AcDbEntity
8
anode-cathode-hole
6
ByLayer
62
256
370
-1
100
AcDbLine
10
-0.6
20
-37.4264068712
11
-0.6
21
-40.8358094991
0
LINE
5
6E0
100
AcDbEntity
8
anode-cathode-hole
6
ByLayer
62
256
370
-1
100
AcDbLine
10
-0.6
20
-37.4264068712
11
0.6
21
-37.4264068712
0
LINE
5
6E1
100
AcDbEntity
8
anode-cathode-hole
6
ByLayer
62
256
370
-1
100
AcDbLine
10
10.0066017178
20
-51.4424112169
11
11.2066017178
21
-51.4424112169
0
LINE
5
6E2
100
AcDbEntity
8
anode-cathode-hole
6
ByLayer
62
256
370
-1
100
AcDbLine
10
11.2066017178
20
-48.033008589
11
11.2066017178
21
-51.4424112169
0
LINE
5
6E3
100
AcDbEntity
8
anode-cathode-hole
6
ByLayer
62
256
370
-1
100
AcDbLine
10
10.0066017178
20
-48.033008589
11
10.0066017178
21
-51.4424112169
0
LINE
5
6E4
100
AcDbEntity
8
anode-cathode-hole
6
ByLayer
62
256
370
-1
100
AcDbLine
10
10.0066017178
20
-48.033008589
11
11.2066017178
21
-48.033008589
0
LINE
5
6E5
100
AcDbEntity
8
anode-cathode-hole
6
ByLayer
62
256
370
-1
100
AcDbLine
10
20.6132034356
20
-62.0490129347
11
21.8132034356
21
-62.0490129347
0
LINE
5
6E6
100
AcDbEntity
8
anode-cathode-hole
6
ByLayer
62
256
370
-1
100
AcDbLine
10
21.8132034356
20
-58.6396103068
11
21.8132034356
21
-62.0490129347
0
LINE
5
6E7
100
AcDbEntity
8
anode-cathode-hole
6
ByLayer
62
256
370
-1
100
AcDbLine
10
20.6132034356
20
-58.6396103068
11
20.6132034356
21
-62.0490129347
0
LINE
5
6E8
100
AcDbEntity
8
anode-cathode-hole
6
ByLayer
62
256
370
-1
100
AcDbLine
10
20.6132034356
20
-58.6396103068
11
21.8132034356
21
-58.6396103068
0
LINE
5
6E9
100
AcDbEntity
8
anode-cathode-hole
6
ByLayer
62
256
370
-1
100
AcDbLine
10
31.2198051534
20
-72.6556146525
11
32.4198051534
21
-72.6556146525
0
LINE
5
6EA
100
AcDbEntity
8
anode-cathode-hole
6
ByLayer
62
256
370
-1
100
AcDbLine
10
32.4198051534
20
-69.2462120246
11
32.4198051534
21
-72.6556146525
0
LINE
5
6EB
100
AcDbEntity
8
anode-cathode-hole
6
ByLayer
62
256
370
-1
100
AcDbLine
10
31.2198051534
20
-69.2462120246
11
31.2198051534
21
-72.6556146525
0
LINE
5
6EC
100
AcDbEntity
8
anode-cathode-hole
6
ByLayer
62
256
370
-1
100
AcDbLine
10
31.2198051534
20
-69.2462120246
11
32.4198051534
21
-69.2462120246
0
LINE
5
6ED
100
AcDbEntity
8
anode-cathode-hole
6
ByLayer
62
256
370
-1
100
AcDbLine
10
41.8264068712
20
-83.2622163703
11
43.0264068712
21
-83.2622163703
0
LINE
5
6EE
100
AcDbEntity
8
anode-cathode-hole
6
ByLayer
62
256
370
-1
100
AcDbLine
10
43.0264068712
20
-79.8528137424
11
43.0264068712
21
-83.2622163703
0
LINE
5
6EF
100
AcDbEntity
8
anode-cathode-hole
6
ByLayer
62
256
370
-1
100
AcDbLine
10
41.8264068712
20
-79.8528137424
11
41.8264068712
21
-83.2622163703
0
LINE
5
6F0
100
AcDbEntity
8
anode-cathode-hole
6
ByLayer
62
256
370
-1
100
AcDbLine
10
41.8264068712
20
-79.8528137424
11
43.0264068712
21
-79.8528137424
0
LINE
5
6F1
100
AcDbEntity
8
anode-cathode-hole
6
ByLayer
62
256
370
-1
100
AcDbLine
10
52.433008589
20
-93.8688180881
11
53.633008589
21
-93.8688180881
0
LINE
5
6F2
100
AcDbEntity
8
anode-cathode-hole
6
ByLayer
62
256
370
-1
100
AcDbLine
10
53.633008589
20
-90.4594154602
11
53.633008589
21
-93.8688180881
0
LINE
5
6F3
100
AcDbEntity
8
anode-cathode-hole
6
ByLayer
62
256
370
-1
100
AcDbLine
10
52.433008589
20
-90.4594154602
11
52.433008589
21
-93.8688180881
0
LINE
5
6F4
100
AcDbEntity
8
anode-cathode-hole
6
ByLayer
62
256
370
-1
100
AcDbLine
10
52.433008589
20
-90.4594154602
11
53.633008589
21
-90.4594154602
0
LINE
5
6F5
100
AcDbEntity
8
anode-cathode-hole
6
ByLayer
62
256
370
-1
100
AcDbLine
10
-32.4198051534
20
-30.2292077813
11
-31.2198051534
21
-30.2292077813
0
LINE
5
6F6
100
AcDbEntity
8
anode-cathode-hole
6
ByLayer
62
256
370
-1
100
AcDbLine
10
-31.2198051534
20
-26.8198051534
11
-31.2198051534
21
-30.2292077813
0
LINE
5
6F7
100
AcDbEntity
8
anode-cathode-hole
6
ByLayer
62
256
370
-1
100
AcDbLine
10
-32.4198051534
20
-26.8198051534
11
-32.4198051534
21
-30.2292077813
0
LINE
5
6F8
100
AcDbEntity
8
anode-cathode-hole
6
ByLayer
62
256
370
-1
100
AcDbLine
10
-32.4198051534
20
-26.8198051534
11
-31.2198051534
21
-26.8198051534
0
LINE
5
6F9
100
AcDbEntity
8
anode-cathode-hole
6
ByLayer
62
256
370
-1
100
AcDbLine
10
-30.2708188968
20
-32.5202632726
11
-31.1193470342
21
-33.36879141
0
LINE
5
6FA
100
AcDbEntity
8
anode-cathode-hole
6
ByLayer
62
256
370
-1
100
AcDbLine
10
48.1435641586
20
-110.934646328
11
-30.2708188968
21
-32.5202632726
0
LINE
5
6FB
100
AcDbEntity
8
anode-cathode-hole
6
ByLayer
62
256
370
-1
100
AcDbLine
10
47.2950360213
20
-111.783174465
11
-31.1193470342
21
-33.36879141
0
LINE
5
6FC
100
AcDbEntity
8
anode-cathode-hole
6
ByLayer
62
256
370
-1
100
AcDbLine
10
48.1435641586
20
-110.934646328
11
47.2950360213
21
-111.783174465
0
LINE
5
6FD
100
AcDbEntity
8
anode-cathode-hole
6
ByLayer
62
256
370
-1
100
AcDbLine
10
-21.8132034356
20
-40.8358094991
11
-20.6132034356
21
-40.8358094991
0
LINE
5
6FE
100
AcDbEntity
8
anode-cathode-hole
6
ByLayer
62
256
370
-1
100
AcDbLine
10
-20.6132034356
20
-37.4264068712
11
-20.6132034356
21
-40.8358094991
0
LINE
5
6FF
100
AcDbEntity
8
anode-cathode-hole
6
ByLayer
62
256
370
-1
100
AcDbLine
10
-21.8132034356
20
-37.4264068712
11
-21.8132034356
21
-40.8358094991
0
LINE
5
700
100
AcDbEntity
8
anode-cathode-hole
6
ByLayer
62
256
370
-1
100
AcDbLine
10
-21.8132034356
20
-37.4264068712
11
-20.6132034356
21
-37.4264068712
0
LINE
5
701
100
AcDbEntity
8
anode-cathode-hole
6
ByLayer
62
256
370
-1
100
AcDbLine
10
-11.2066017178
20
-51.4424112169
11
-10.0066017178
21
-51.4424112169
0
LINE
5
702
100
AcDbEntity
8
anode-cathode-hole
6
ByLayer
62
256
370
-1
100
AcDbLine
10
-10.0066017178
20
-48.033008589
11
-10.0066017178
21
-51.4424112169
0
LINE
5
703
100
AcDbEntity
8
anode-cathode-hole
6
ByLayer
62
256
370
-1
100
AcDbLine
10
-11.2066017178
20
-48.033008589
11
-11.2066017178
21
-51.4424112169
0
LINE
5
704
100
AcDbEntity
8
anode-cathode-hole
6
ByLayer
62
256
370
-1
100
AcDbLine
10
-11.2066017178
20
-48.033008589
11
-10.0066017178
21
-48.033008589
0
LINE
5
705
100
AcDbEntity
8
anode-cathode-hole
6
ByLayer
62
256
370
-1
100
AcDbLine
10
-0.6
20
-62.0490129347
11
0.6
21
-62.0490129347
0
LINE
5
706
100
AcDbEntity
8
anode-cathode-hole
6
ByLayer
62
256
370
-1
100
AcDbLine
10
0.6
20
-58.6396103068
11
0.6
21
-62.0490129347
0
LINE
5
707
100
AcDbEntity
8
anode-cathode-hole
6
ByLayer
62
256
370
-1
100
AcDbLine
10
-0.6
20
-58.6396103068
11
-0.6
21
-62.0490129347
0
LINE
5
708
100
AcDbEntity
8
anode-cathode-hole
6
ByLayer
62
256
370
-1
100
AcDbLine
10
-0.6
20
-58.6396103068
11
0.6
21
-58.6396103068
0
LINE
5
709
100
AcDbEntity
8
anode-cathode-hole
6
ByLayer
62
256
370
-1
100
AcDbLine
10
10.0066017178
20
-72.6556146525
11
11.2066017178
21
-72.6556146525
0
LINE
5
70A
100
AcDbEntity
8
anode-cathode-hole
6
ByLayer
62
256
370
-1
100
AcDbLine
10
11.2066017178
20
-69.2462120246
11
11.2066017178
21
-72.6556146525
0
LINE
5
70B
100
AcDbEntity
8
anode-cathode-hole
6
ByLayer
62
256
370
-1
100
AcDbLine
10
10.0066017178
20
-69.2462120246
11
10.0066017178
21
-72.6556146525
0
LINE
5
70C
100
AcDbEntity
8
anode-cathode-hole
6
ByLayer
62
256
370
-1
100
AcDbLine
10
10.0066017178
20
-69.2462120246
11
11.2066017178
21
-69.2462120246
0
LINE
5
70D
100
AcDbEntity
8
anode-cathode-hole
6
ByLayer
62
256
370
-1
100
AcDbLine
10
20.6132034356
20
-83.2622163703
11
21.8132034356
21
-83.2622163703
0
LINE
5
70E
100
AcDbEntity
8
anode-cathode-hole
6
ByLayer
62
256
370
-1
100
AcDbLine
10
21.8132034356
20
-79.8528137424
11
21.8132034356
21
-83.2622163703
0
LINE
5
70F
100
AcDbEntity
8
anode-cathode-hole
6
ByLayer
62
256
370
-1
100
AcDbLine
10
20.6132034356
20
-79.8528137424
11
20.6132034356
21
-83.2622163703
0
LINE
5
710
100
AcDbEntity
8
anode-cathode-hole
6
ByLayer
62
256
370
-1
100
AcDbLine
10
20.6132034356
20
-79.8528137424
11
21.8132034356
21
-79.8528137424
0
LINE
5
711
100
AcDbEntity
8
anode-cathode-hole
6
ByLayer
62
256
370
-1
100
AcDbLine
10
31.2198051534
20
-93.8688180881
11
32.4198051534
21
-93.8688180881
0
LINE
5
712
100
AcDbEntity
8
anode-cathode-hole
6
ByLayer
62
256
370
-1
100
AcDbLine
10
32.4198051534
20
-90.4594154602
11
32.4198051534
21
-93.8688180881
0
LINE
5
713
100
AcDbEntity
8
anode-cathode-hole
6
ByLayer
62
256
370
-1
100
AcDbLine
10
31.2198051534
20
-90.4594154602
11
31.2198051534
21
-93.8688180881
0
LINE
5
714
100
AcDbEntity
8
anode-cathode-hole
6
ByLayer
62
256
370
-1
100
AcDbLine
10
31.2198051534
20
-90.4594154602
11
32.4198051534
21
-90.4594154602
0
LINE
5
715
100
AcDbEntity
8
anode-cathode-hole
6
ByLayer
62
256
370
-1
100
AcDbLine
10
41.8264068712
20
-104.475419806
11
43.0264068712
21
-104.475419806
0
LINE
5
716
100
AcDbEntity
8
anode-cathode-hole
6
ByLayer
62
256
370
-1
100
AcDbLine
10
43.0264068712
20
-101.066017178
11
43.0264068712
21
-104.475419806
0
LINE
5
717
100
AcDbEntity
8
anode-cathode-hole
6
ByLayer
62
256
370
-1
100
AcDbLine
10
41.8264068712
20
-101.066017178
11
41.8264068712
21
-104.475419806
0
LINE
5
718
100
AcDbEntity
8
anode-cathode-hole
6
ByLayer
62
256
370
-1
100
AcDbLine
10
41.8264068712
20
-101.066017178
11
43.0264068712
21
-101.066017178
0
LINE
5
719
100
AcDbEntity
8
anode-cathode-hole
6
ByLayer
62
256
370
-1
100
AcDbLine
10
-43.0264068712
20
-40.8358094991
11
-41.8264068712
21
-40.8358094991
0
LINE
5
71A
100
AcDbEntity
8
anode-cathode-hole
6
ByLayer
62
256
370
-1
100
AcDbLine
10
-41.8264068712
20
-37.4264068712
11
-41.8264068712
21
-40.8358094991
0
LINE
5
71B
100
AcDbEntity
8
anode-cathode-hole
6
ByLayer
62
256
370
-1
100
AcDbLine
10
-43.0264068712
20
-37.4264068712
11
-43.0264068712
21
-40.8358094991
0
LINE
5
71C
100
AcDbEntity
8
anode-cathode-hole
6
ByLayer
62
256
370
-1
100
AcDbLine
10
-43.0264068712
20
-37.4264068712
11
-41.8264068712
21
-37.4264068712
0
LINE
5
71D
100
AcDbEntity
8
anode-cathode-hole
6
ByLayer
62
256
370
-1
100
AcDbLine
10
-40.8774206146
20
-43.1268649904
11
-41.725948752
21
-43.9753931278
0
LINE
5
71E
100
AcDbEntity
8
anode-cathode-hole
6
ByLayer
62
256
370
-1
100
AcDbLine
10
37.5369624408
20
-121.541248046
11
-40.8774206146
21
-43.1268649904
0
LINE
5
71F
100
AcDbEntity
8
anode-cathode-hole
6
ByLayer
62
256
370
-1
100
AcDbLine
10
36.6884343035
20
-122.389776183
11
-41.725948752
21
-43.9753931278
0
LINE
5
720
100
AcDbEntity
8
anode-cathode-hole
6
ByLayer
62
256
370
-1
100
AcDbLine
10
37.5369624408
20
-121.541248046
11
36.6884343035
21
-122.389776183
0
LINE
5
721
100
AcDbEntity
8
anode-cathode-hole
6
ByLayer
62
256
370
-1
100
AcDbLine
10
-32.4198051534
20
-51.4424112169
11
-31.2198051534
21
-51.4424112169
0
LINE
5
722
100
AcDbEntity
8
anode-cathode-hole
6
ByLayer
62
256
370
-1
100
AcDbLine
10
-31.2198051534
20
-48.033008589
11
-31.2198051534
21
-51.4424112169
0
LINE
5
723
100
AcDbEntity
8
anode-cathode-hole
6
ByLayer
62
256
370
-1
100
AcDbLine
10
-32.4198051534
20
-48.033008589
11
-32.4198051534
21
-51.4424112169
0
LINE
5
724
100
AcDbEntity
8
anode-cathode-hole
6
ByLayer
62
256
370
-1
100
AcDbLine
10
-32.4198051534
20
-48.033008589
11
-31.2198051534
21
-48.033008589
0
LINE
5
725
100
AcDbEntity
8
anode-cathode-hole
6
ByLayer
62
256
370
-1
100
AcDbLine
10
-21.8132034356
20
-62.0490129347
11
-20.6132034356
21
-62.0490129347
0
LINE
5
726
100
AcDbEntity
8
anode-cathode-hole
6
ByLayer
62
256
370
-1
100
AcDbLine
10
-20.6132034356
20
-58.6396103068
11
-20.6132034356
21
-62.0490129347
0
LINE
5
727
100
AcDbEntity
8
anode-cathode-hole
6
ByLayer
62
256
370
-1
100
AcDbLine
10
-21.8132034356
20
-58.6396103068
11
-21.8132034356
21
-62.0490129347
0
LINE
5
728
100
AcDbEntity
8
anode-cathode-hole
6
ByLayer
62
256
370
-1
100
AcDbLine
10
-21.8132034356
20
-58.6396103068
11
-20.6132034356
21
-58.6396103068
0
LINE
5
729
100
AcDbEntity
8
anode-cathode-hole
6
ByLayer
62
256
370
-1
100
AcDbLine
10
-11.2066017178
20
-72.6556146525
11
-10.0066017178
21
-72.6556146525
0
LINE
5
72A
100
AcDbEntity
8
anode-cathode-hole
6
ByLayer
62
256
370
-1
100
AcDbLine
10
-10.0066017178
20
-69.2462120246
11
-10.0066017178
21
-72.6556146525
0
LINE
5
72B
100
AcDbEntity
8
anode-cathode-hole
6
ByLayer
62
256
370
-1
100
AcDbLine
10
-11.2066017178
20
-69.2462120246
11
-11.2066017178
21
-72.6556146525
0
LINE
5
72C
100
AcDbEntity
8
anode-cathode-hole
6
ByLayer
62
256
370
-1
100
AcDbLine
10
-11.2066017178
20
-69.2462120246
11
-10.0066017178
21
-69.2462120246
0
LINE
5
72D
100
AcDbEntity
8
anode-cathode-hole
6
ByLayer
62
256
370
-1
100
AcDbLine
10
-0.6
20
-83.2622163703
11
0.6
21
-83.2622163703
0
LINE
5
72E
100
AcDbEntity
8
anode-cathode-hole
6
ByLayer
62
256
370
-1
100
AcDbLine
10
0.6
20
-79.8528137424
11
0.6
21
-83.2622163703
0
LINE
5
72F
100
AcDbEntity
8
anode-cathode-hole
6
ByLayer
62
256
370
-1
100
AcDbLine
10
-0.6
20
-79.8528137424
11
-0.6
21
-83.2622163703
0
LINE
5
730
100
AcDbEntity
8
anode-cathode-hole
6
ByLayer
62
256
370
-1
100
AcDbLine
10
-0.6
20
-79.8528137424
11
0.6
21
-79.8528137424
0
LINE
5
731
100
AcDbEntity
8
anode-cathode-hole
6
ByLayer
62
256
370
-1
100
AcDbLine
10
10.0066017178
20
-93.8688180881
11
11.2066017178
21
-93.8688180881
0
LINE
5
732
100
AcDbEntity
8
anode-cathode-hole
6
ByLayer
62
256
370
-1
100
AcDbLine
10
11.2066017178
20
-90.4594154602
11
11.2066017178
21
-93.8688180881
0
LINE
5
733
100
AcDbEntity
8
anode-cathode-hole
6
ByLayer
62
256
370
-1
100
AcDbLine
10
10.0066017178
20
-90.4594154602
11
10.0066017178
21
-93.8688180881
0
LINE
5
734
100
AcDbEntity
8
anode-cathode-hole
6
ByLayer
62
256
370
-1
100
AcDbLine
10
10.0066017178
20
-90.4594154602
11
11.2066017178
21
-90.4594154602
0
LINE
5
735
100
AcDbEntity
8
anode-cathode-hole
6
ByLayer
62
256
370
-1
100
AcDbLine
10
20.6132034356
20
-104.475419806
11
21.8132034356
21
-104.475419806
0
LINE
5
736
100
AcDbEntity
8
anode-cathode-hole
6
ByLayer
62
256
370
-1
100
AcDbLine
10
21.8132034356
20
-101.066017178
11
21.8132034356
21
-104.475419806
0
LINE
5
737
100
AcDbEntity
8
anode-cathode-hole
6
ByLayer
62
256
370
-1
100
AcDbLine
10
20.6132034356
20
-101.066017178
11
20.6132034356
21
-104.475419806
0
LINE
5
738
100
AcDbEntity
8
anode-cathode-hole
6
ByLayer
62
256
370
-1
100
AcDbLine
10
20.6132034356
20
-101.066017178
11
21.8132034356
21
-101.066017178
0
LINE
5
739
100
AcDbEntity
8
anode-cathode-hole
6
ByLayer
62
256
370
-1
100
AcDbLine
10
31.2198051534
20
-115.082021524
11
32.4198051534
21
-115.082021524
0
LINE
5
73A
100
AcDbEntity
8
anode-cathode-hole
6
ByLayer
62
256
370
-1
100
AcDbLine
10
32.4198051534
20
-111.672618896
11
32.4198051534
21
-115.082021524
0
LINE
5
73B
100
AcDbEntity
8
anode-cathode-hole
6
ByLayer
62
256
370
-1
100
AcDbLine
10
31.2198051534
20
-111.672618896
11
31.2198051534
21
-115.082021524
0
LINE
5
73C
100
AcDbEntity
8
anode-cathode-hole
6
ByLayer
62
256
370
-1
100
AcDbLine
10
31.2198051534
20
-111.672618896
11
32.4198051534
21
-111.672618896
0
LINE
5
73D
100
AcDbEntity
8
anode-cathode-hole
6
ByLayer
62
256
370
-1
100
AcDbLine
10
-53.633008589
20
-51.4424112169
11
-52.433008589
21
-51.4424112169
0
LINE
5
73E
100
AcDbEntity
8
anode-cathode-hole
6
ByLayer
62
256
370
-1
100
AcDbLine
10
-52.433008589
20
-48.033008589
11
-52.433008589
21
-51.4424112169
0
LINE
5
73F
100
AcDbEntity
8
anode-cathode-hole
6
ByLayer
62
256
370
-1
100
AcDbLine
10
-53.633008589
20
-48.033008589
11
-53.633008589
21
-51.4424112169
0
LINE
5
740
100
AcDbEntity
8
anode-cathode-hole
6
ByLayer
62
256
370
-1
100
AcDbLine
10
-53.633008589
20
-48.033008589
11
-52.433008589
21
-48.033008589
0
LINE
5
741
100
AcDbEntity
8
anode-cathode-hole
6
ByLayer
62
256
370
-1
100
AcDbLine
10
-51.4840223324
20
-53.7334667082
11
-52.3325504698
21
-54.5819948456
0
LINE
5
742
100
AcDbEntity
8
anode-cathode-hole
6
ByLayer
62
256
370
-1
100
AcDbLine
10
26.930360723
20
-132.147849764
11
-51.4840223324
21
-53.7334667082
0
LINE
5
743
100
AcDbEntity
8
anode-cathode-hole
6
ByLayer
62
256
370
-1
100
AcDbLine
10
26.0818325857
20
-132.996377901
11
-52.3325504698
21
-54.5819948456
0
LINE
5
744
100
AcDbEntity
8
anode-cathode-hole
6
ByLayer
62
256
370
-1
100
AcDbLine
10
26.930360723
20
-132.147849764
11
26.0818325857
21
-132.996377901
0
LINE
5
745
100
AcDbEntity
8
anode-cathode-hole
6
ByLayer
62
256
370
-1
100
AcDbLine
10
-43.0264068712
20
-62.0490129347
11
-41.8264068712
21
-62.0490129347
0
LINE
5
746
100
AcDbEntity
8
anode-cathode-hole
6
ByLayer
62
256
370
-1
100
AcDbLine
10
-41.8264068712
20
-58.6396103068
11
-41.8264068712
21
-62.0490129347
0
LINE
5
747
100
AcDbEntity
8
anode-cathode-hole
6
ByLayer
62
256
370
-1
100
AcDbLine
10
-43.0264068712
20
-58.6396103068
11
-43.0264068712
21
-62.0490129347
0
LINE
5
748
100
AcDbEntity
8
anode-cathode-hole
6
ByLayer
62
256
370
-1
100
AcDbLine
10
-43.0264068712
20
-58.6396103068
11
-41.8264068712
21
-58.6396103068
0
LINE
5
749
100
AcDbEntity
8
anode-cathode-hole
6
ByLayer
62
256
370
-1
100
AcDbLine
10
-32.4198051534
20
-72.6556146525
11
-31.2198051534
21
-72.6556146525
0
LINE
5
74A
100
AcDbEntity
8
anode-cathode-hole
6
ByLayer
62
256
370
-1
100
AcDbLine
10
-31.2198051534
20
-69.2462120246
11
-31.2198051534
21
-72.6556146525
0
LINE
5
74B
100
AcDbEntity
8
anode-cathode-hole
6
ByLayer
62
256
370
-1
100
AcDbLine
10
-32.4198051534
20
-69.2462120246
11
-32.4198051534
21
-72.6556146525
0
LINE
5
74C
100
AcDbEntity
8
anode-cathode-hole
6
ByLayer
62
256
370
-1
100
AcDbLine
10
-32.4198051534
20
-69.2462120246
11
-31.2198051534
21
-69.2462120246
0
LINE
5
74D
100
AcDbEntity
8
anode-cathode-hole
6
ByLayer
62
256
370
-1
100
AcDbLine
10
-21.8132034356
20
-83.2622163703
11
-20.6132034356
21
-83.2622163703
0
LINE
5
74E
100
AcDbEntity
8
anode-cathode-hole
6
ByLayer
62
256
370
-1
100
AcDbLine
10
-20.6132034356
20
-79.8528137424
11
-20.6132034356
21
-83.2622163703
0
LINE
5
74F
100
AcDbEntity
8
anode-cathode-hole
6
ByLayer
62
256
370
-1
100
AcDbLine
10
-21.8132034356
20
-79.8528137424
11
-21.8132034356
21
-83.2622163703
0
LINE
5
750
100
AcDbEntity
8
anode-cathode-hole
6
ByLayer
62
256
370
-1
100
AcDbLine
10
-21.8132034356
20
-79.8528137424
11
-20.6132034356
21
-79.8528137424
0
LINE
5
751
100
AcDbEntity
8
anode-cathode-hole
6
ByLayer
62
256
370
-1
100
AcDbLine
10
-11.2066017178
20
-93.8688180881
11
-10.0066017178
21
-93.8688180881
0
LINE
5
752
100
AcDbEntity
8
anode-cathode-hole
6
ByLayer
62
256
370
-1
100
AcDbLine
10
-10.0066017178
20
-90.4594154602
11
-10.0066017178
21
-93.8688180881
0
LINE
5
753
100
AcDbEntity
8
anode-cathode-hole
6
ByLayer
62
256
370
-1
100
AcDbLine
10
-11.2066017178
20
-90.4594154602
11
-11.2066017178
21
-93.8688180881
0
LINE
5
754
100
AcDbEntity
8
anode-cathode-hole
6
ByLayer
62
256
370
-1
100
AcDbLine
10
-11.2066017178
20
-90.4594154602
11
-10.0066017178
21
-90.4594154602
0
LINE
5
755
100
AcDbEntity
8
anode-cathode-hole
6
ByLayer
62
256
370
-1
100
AcDbLine
10
-0.6
20
-104.475419806
11
0.6
21
-104.475419806
0
LINE
5
756
100
AcDbEntity
8
anode-cathode-hole
6
ByLayer
62
256
370
-1
100
AcDbLine
10
0.6
20
-101.066017178
11
0.6
21
-104.475419806
0
LINE
5
757
100
AcDbEntity
8
anode-cathode-hole
6
ByLayer
62
256
370
-1
100
AcDbLine
10
-0.6
20
-101.066017178
11
-0.6
21
-104.475419806
0
LINE
5
758
100
AcDbEntity
8
anode-cathode-hole
6
ByLayer
62
256
370
-1
100
AcDbLine
10
-0.6
20
-101.066017178
11
0.6
21
-101.066017178
0
LINE
5
759
100
AcDbEntity
8
anode-cathode-hole
6
ByLayer
62
256
370
-1
100
AcDbLine
10
10.0066017178
20
-115.082021524
11
11.2066017178
21
-115.082021524
0
LINE
5
75A
100
AcDbEntity
8
anode-cathode-hole
6
ByLayer
62
256
370
-1
100
AcDbLine
10
11.2066017178
20
-111.672618896
11
11.2066017178
21
-115.082021524
0
LINE
5
75B
100
AcDbEntity
8
anode-cathode-hole
6
ByLayer
62
256
370
-1
100
AcDbLine
10
10.0066017178
20
-111.672618896
11
10.0066017178
21
-115.082021524
0
LINE
5
75C
100
AcDbEntity
8
anode-cathode-hole
6
ByLayer
62
256
370
-1
100
AcDbLine
10
10.0066017178
20
-111.672618896
11
11.2066017178
21
-111.672618896
0
LINE
5
75D
100
AcDbEntity
8
anode-cathode-hole
6
ByLayer
62
256
370
-1
100
AcDbLine
10
20.6132034356
20
-125.688623242
11
21.8132034356
21
-125.688623242
0
LINE
5
75E
100
AcDbEntity
8
anode-cathode-hole
6
ByLayer
62
256
370
-1
100
AcDbLine
10
21.8132034356
20
-122.279220614
11
21.8132034356
21
-125.688623242
0
LINE
5
75F
100
AcDbEntity
8
anode-cathode-hole
6
ByLayer
62
256
370
-1
100
AcDbLine
10
20.6132034356
20
-122.279220614
11
20.6132034356
21
-125.688623242
0
LINE
5
760
100
AcDbEntity
8
anode-cathode-hole
6
ByLayer
62
256
370
-1
100
AcDbLine
10
20.6132034356
20
-122.279220614
11
21.8132034356
21
-122.279220614
0
LINE
5
761
100
AcDbEntity
8
anode-cathode-hole
6
ByLayer
62
256
370
-1
100
AcDbLine
10
-64.2396103068
20
-62.0490129347
11
-63.0396103068
21
-62.0490129347
0
LINE
5
762
100
AcDbEntity
8
anode-cathode-hole
6
ByLayer
62
256
370
-1
100
AcDbLine
10
-63.0396103068
20
-58.6396103068
11
-63.0396103068
21
-62.0490129347
0
LINE
5
763
100
AcDbEntity
8
anode-cathode-hole
6
ByLayer
62
256
370
-1
100
AcDbLine
10
-64.2396103068
20
-58.6396103068
11
-64.2396103068
21
-62.0490129347
0
LINE
5
764
100
AcDbEntity
8
anode-cathode-hole
6
ByLayer
62
256
370
-1
100
AcDbLine
10
-64.2396103068
20
-58.6396103068
11
-63.0396103068
21
-58.6396103068
0
LINE
5
765
100
AcDbEntity
8
anode-cathode-hole
6
ByLayer
62
256
370
-1
100
AcDbLine
10
-62.0906240502
20
-64.340068426
11
-62.9391521876
21
-65.1885965634
0
LINE
5
766
100
AcDbEntity
8
anode-cathode-hole
6
ByLayer
62
256
370
-1
100
AcDbLine
10
16.3237590052
20
-142.754451482
11
-62.0906240502
21
-64.340068426
0
LINE
5
767
100
AcDbEntity
8
anode-cathode-hole
6
ByLayer
62
256
370
-1
100
AcDbLine
10
15.4752308679
20
-143.602979619
11
-62.9391521876
21
-65.1885965634
0
LINE
5
768
100
AcDbEntity
8
anode-cathode-hole
6
ByLayer
62
256
370
-1
100
AcDbLine
10
16.3237590052
20
-142.754451482
11
15.4752308679
21
-143.602979619
0
LINE
5
769
100
AcDbEntity
8
anode-cathode-hole
6
ByLayer
62
256
370
-1
100
AcDbLine
10
-53.633008589
20
-72.6556146525
11
-52.433008589
21
-72.6556146525
0
LINE
5
76A
100
AcDbEntity
8
anode-cathode-hole
6
ByLayer
62
256
370
-1
100
AcDbLine
10
-52.433008589
20
-69.2462120246
11
-52.433008589
21
-72.6556146525
0
LINE
5
76B
100
AcDbEntity
8
anode-cathode-hole
6
ByLayer
62
256
370
-1
100
AcDbLine
10
-53.633008589
20
-69.2462120246
11
-53.633008589
21
-72.6556146525
0
LINE
5
76C
100
AcDbEntity
8
anode-cathode-hole
6
ByLayer
62
256
370
-1
100
AcDbLine
10
-53.633008589
20
-69.2462120246
11
-52.433008589
21
-69.2462120246
0
LINE
5
76D
100
AcDbEntity
8
anode-cathode-hole
6
ByLayer
62
256
370
-1
100
AcDbLine
10
-43.0264068712
20
-83.2622163703
11
-41.8264068712
21
-83.2622163703
0
LINE
5
76E
100
AcDbEntity
8
anode-cathode-hole
6
ByLayer
62
256
370
-1
100
AcDbLine
10
-41.8264068712
20
-79.8528137424
11
-41.8264068712
21
-83.2622163703
0
LINE
5
76F
100
AcDbEntity
8
anode-cathode-hole
6
ByLayer
62
256
370
-1
100
AcDbLine
10
-43.0264068712
20
-79.8528137424
11
-43.0264068712
21
-83.2622163703
0
LINE
5
770
100
AcDbEntity
8
anode-cathode-hole
6
ByLayer
62
256
370
-1
100
AcDbLine
10
-43.0264068712
20
-79.8528137424
11
-41.8264068712
21
-79.8528137424
0
LINE
5
771
100
AcDbEntity
8
anode-cathode-hole
6
ByLayer
62
256
370
-1
100
AcDbLine
10
-32.4198051534
20
-93.8688180881
11
-31.2198051534
21
-93.8688180881
0
LINE
5
772
100
AcDbEntity
8
anode-cathode-hole
6
ByLayer
62
256
370
-1
100
AcDbLine
10
-31.2198051534
20
-90.4594154602
11
-31.2198051534
21
-93.8688180881
0
LINE
5
773
100
AcDbEntity
8
anode-cathode-hole
6
ByLayer
62
256
370
-1
100
AcDbLine
10
-32.4198051534
20
-90.4594154602
11
-32.4198051534
21
-93.8688180881
0
LINE
5
774
100
AcDbEntity
8
anode-cathode-hole
6
ByLayer
62
256
370
-1
100
AcDbLine
10
-32.4198051534
20
-90.4594154602
11
-31.2198051534
21
-90.4594154602
0
LINE
5
775
100
AcDbEntity
8
anode-cathode-hole
6
ByLayer
62
256
370
-1
100
AcDbLine
10
-21.8132034356
20
-104.475419806
11
-20.6132034356
21
-104.475419806
0
LINE
5
776
100
AcDbEntity
8
anode-cathode-hole
6
ByLayer
62
256
370
-1
100
AcDbLine
10
-20.6132034356
20
-101.066017178
11
-20.6132034356
21
-104.475419806
0
LINE
5
777
100
AcDbEntity
8
anode-cathode-hole
6
ByLayer
62
256
370
-1
100
AcDbLine
10
-21.8132034356
20
-101.066017178
11
-21.8132034356
21
-104.475419806
0
LINE
5
778
100
AcDbEntity
8
anode-cathode-hole
6
ByLayer
62
256
370
-1
100
AcDbLine
10
-21.8132034356
20
-101.066017178
11
-20.6132034356
21
-101.066017178
0
LINE
5
779
100
AcDbEntity
8
anode-cathode-hole
6
ByLayer
62
256
370
-1
100
AcDbLine
10
-11.2066017178
20
-115.082021524
11
-10.0066017178
21
-115.082021524
0
LINE
5
77A
100
AcDbEntity
8
anode-cathode-hole
6
ByLayer
62
256
370
-1
100
AcDbLine
10
-10.0066017178
20
-111.672618896
11
-10.0066017178
21
-115.082021524
0
LINE
5
77B
100
AcDbEntity
8
anode-cathode-hole
6
ByLayer
62
256
370
-1
100
AcDbLine
10
-11.2066017178
20
-111.672618896
11
-11.2066017178
21
-115.082021524
0
LINE
5
77C
100
AcDbEntity
8
anode-cathode-hole
6
ByLayer
62
256
370
-1
100
AcDbLine
10
-11.2066017178
20
-111.672618896
11
-10.0066017178
21
-111.672618896
0
LINE
5
77D
100
AcDbEntity
8
anode-cathode-hole
6
ByLayer
62
256
370
-1
100
AcDbLine
10
-0.6
20
-125.688623242
11
0.6
21
-125.688623242
0
LINE
5
77E
100
AcDbEntity
8
anode-cathode-hole
6
ByLayer
62
256
370
-1
100
AcDbLine
10
0.6
20
-122.279220614
11
0.6
21
-125.688623242
0
LINE
5
77F
100
AcDbEntity
8
anode-cathode-hole
6
ByLayer
62
256
370
-1
100
AcDbLine
10
-0.6
20
-122.279220614
11
-0.6
21
-125.688623242
0
LINE
5
780
100
AcDbEntity
8
anode-cathode-hole
6
ByLayer
62
256
370
-1
100
AcDbLine
10
-0.6
20
-122.279220614
11
0.6
21
-122.279220614
0
LINE
5
781
100
AcDbEntity
8
anode-cathode-hole
6
ByLayer
62
256
370
-1
100
AcDbLine
10
10.0066017178
20
-136.295224959
11
11.2066017178
21
-136.295224959
0
LINE
5
782
100
AcDbEntity
8
anode-cathode-hole
6
ByLayer
62
256
370
-1
100
AcDbLine
10
11.2066017178
20
-132.885822331
11
11.2066017178
21
-136.295224959
0
LINE
5
783
100
AcDbEntity
8
anode-cathode-hole
6
ByLayer
62
256
370
-1
100
AcDbLine
10
10.0066017178
20
-132.885822331
11
10.0066017178
21
-136.295224959
0
LINE
5
784
100
AcDbEntity
8
anode-cathode-hole
6
ByLayer
62
256
370
-1
100
AcDbLine
10
10.0066017178
20
-132.885822331
11
11.2066017178
21
-132.885822331
0
LINE
5
785
100
AcDbEntity
8
anode-cathode-hole
6
ByLayer
62
256
370
-1
100
AcDbLine
10
-74.8462120246
20
-72.6556146525
11
-73.6462120246
21
-72.6556146525
0
LINE
5
786
100
AcDbEntity
8
anode-cathode-hole
6
ByLayer
62
256
370
-1
100
AcDbLine
10
-73.6462120246
20
-69.2462120246
11
-73.6462120246
21
-72.6556146525
0
LINE
5
787
100
AcDbEntity
8
anode-cathode-hole
6
ByLayer
62
256
370
-1
100
AcDbLine
10
-74.8462120246
20
-69.2462120246
11
-74.8462120246
21
-72.6556146525
0
LINE
5
788
100
AcDbEntity
8
anode-cathode-hole
6
ByLayer
62
256
370
-1
100
AcDbLine
10
-74.8462120246
20
-69.2462120246
11
-73.6462120246
21
-69.2462120246
0
LINE
5
789
100
AcDbEntity
8
anode-cathode-hole
6
ByLayer
62
256
370
-1
100
AcDbLine
10
-72.697225768
20
-74.9466701438
11
-73.5457539054
21
-75.7951982812
0
LINE
5
78A
100
AcDbEntity
8
anode-cathode-hole
6
ByLayer
62
256
370
-1
100
AcDbLine
10
5.71715728743
20
-153.361053199
11
-72.697225768
21
-74.9466701438
0
LINE
5
78B
100
AcDbEntity
8
anode-cathode-hole
6
ByLayer
62
256
370
-1
100
AcDbLine
10
4.86862915014
20
-154.209581337
11
-73.5457539054
21
-75.7951982812
0
LINE
5
78C
100
AcDbEntity
8
anode-cathode-hole
6
ByLayer
62
256
370
-1
100
AcDbLine
10
5.71715728743
20
-153.361053199
11
4.86862915014
21
-154.209581337
0
LINE
5
78D
100
AcDbEntity
8
anode-cathode-hole
6
ByLayer
62
256
370
-1
100
AcDbLine
10
-64.2396103068
20
-83.2622163703
11
-63.0396103068
21
-83.2622163703
0
LINE
5
78E
100
AcDbEntity
8
anode-cathode-hole
6
ByLayer
62
256
370
-1
100
AcDbLine
10
-63.0396103068
20
-79.8528137424
11
-63.0396103068
21
-83.2622163703
0
LINE
5
78F
100
AcDbEntity
8
anode-cathode-hole
6
ByLayer
62
256
370
-1
100
AcDbLine
10
-64.2396103068
20
-79.8528137424
11
-64.2396103068
21
-83.2622163703
0
LINE
5
790
100
AcDbEntity
8
anode-cathode-hole
6
ByLayer
62
256
370
-1
100
AcDbLine
10
-64.2396103068
20
-79.8528137424
11
-63.0396103068
21
-79.8528137424
0
LINE
5
791
100
AcDbEntity
8
anode-cathode-hole
6
ByLayer
62
256
370
-1
100
AcDbLine
10
-53.633008589
20
-93.8688180881
11
-52.433008589
21
-93.8688180881
0
LINE
5
792
100
AcDbEntity
8
anode-cathode-hole
6
ByLayer
62
256
370
-1
100
AcDbLine
10
-52.433008589
20
-90.4594154602
11
-52.433008589
21
-93.8688180881
0
LINE
5
793
100
AcDbEntity
8
anode-cathode-hole
6
ByLayer
62
256
370
-1
100
AcDbLine
10
-53.633008589
20
-90.4594154602
11
-53.633008589
21
-93.8688180881
0
LINE
5
794
100
AcDbEntity
8
anode-cathode-hole
6
ByLayer
62
256
370
-1
100
AcDbLine
10
-53.633008589
20
-90.4594154602
11
-52.433008589
21
-90.4594154602
0
LINE
5
795
100
AcDbEntity
8
anode-cathode-hole
6
ByLayer
62
256
370
-1
100
AcDbLine
10
-43.0264068712
20
-104.475419806
11
-41.8264068712
21
-104.475419806
0
LINE
5
796
100
AcDbEntity
8
anode-cathode-hole
6
ByLayer
62
256
370
-1
100
AcDbLine
10
-41.8264068712
20
-101.066017178
11
-41.8264068712
21
-104.475419806
0
LINE
5
797
100
AcDbEntity
8
anode-cathode-hole
6
ByLayer
62
256
370
-1
100
AcDbLine
10
-43.0264068712
20
-101.066017178
11
-43.0264068712
21
-104.475419806
0
LINE
5
798
100
AcDbEntity
8
anode-cathode-hole
6
ByLayer
62
256
370
-1
100
AcDbLine
10
-43.0264068712
20
-101.066017178
11
-41.8264068712
21
-101.066017178
0
LINE
5
799
100
AcDbEntity
8
anode-cathode-hole
6
ByLayer
62
256
370
-1
100
AcDbLine
10
-32.4198051534
20
-115.082021524
11
-31.2198051534
21
-115.082021524
0
LINE
5
79A
100
AcDbEntity
8
anode-cathode-hole
6
ByLayer
62
256
370
-1
100
AcDbLine
10
-31.2198051534
20
-111.672618896
11
-31.2198051534
21
-115.082021524
0
LINE
5
79B
100
AcDbEntity
8
anode-cathode-hole
6
ByLayer
62
256
370
-1
100
AcDbLine
10
-32.4198051534
20
-111.672618896
11
-32.4198051534
21
-115.082021524
0
LINE
5
79C
100
AcDbEntity
8
anode-cathode-hole
6
ByLayer
62
256
370
-1
100
AcDbLine
10
-32.4198051534
20
-111.672618896
11
-31.2198051534
21
-111.672618896
0
LINE
5
79D
100
AcDbEntity
8
anode-cathode-hole
6
ByLayer
62
256
370
-1
100
AcDbLine
10
-21.8132034356
20
-125.688623242
11
-20.6132034356
21
-125.688623242
0
LINE
5
79E
100
AcDbEntity
8
anode-cathode-hole
6
ByLayer
62
256
370
-1
100
AcDbLine
10
-20.6132034356
20
-122.279220614
11
-20.6132034356
21
-125.688623242
0
LINE
5
79F
100
AcDbEntity
8
anode-cathode-hole
6
ByLayer
62
256
370
-1
100
AcDbLine
10
-21.8132034356
20
-122.279220614
11
-21.8132034356
21
-125.688623242
0
LINE
5
7A0
100
AcDbEntity
8
anode-cathode-hole
6
ByLayer
62
256
370
-1
100
AcDbLine
10
-21.8132034356
20
-122.279220614
11
-20.6132034356
21
-122.279220614
0
LINE
5
7A1
100
AcDbEntity
8
anode-cathode-hole
6
ByLayer
62
256
370
-1
100
AcDbLine
10
-11.2066017178
20
-136.295224959
11
-10.0066017178
21
-136.295224959
0
LINE
5
7A2
100
AcDbEntity
8
anode-cathode-hole
6
ByLayer
62
256
370
-1
100
AcDbLine
10
-10.0066017178
20
-132.885822331
11
-10.0066017178
21
-136.295224959
0
LINE
5
7A3
100
AcDbEntity
8
anode-cathode-hole
6
ByLayer
62
256
370
-1
100
AcDbLine
10
-11.2066017178
20
-132.885822331
11
-11.2066017178
21
-136.295224959
0
LINE
5
7A4
100
AcDbEntity
8
anode-cathode-hole
6
ByLayer
62
256
370
-1
100
AcDbLine
10
-11.2066017178
20
-132.885822331
11
-10.0066017178
21
-132.885822331
0
LINE
5
7A5
100
AcDbEntity
8
anode-cathode-hole
6
ByLayer
62
256
370
-1
100
AcDbLine
10
-0.6
20
-146.901826677
11
0.6
21
-146.901826677
0
LINE
5
7A6
100
AcDbEntity
8
anode-cathode-hole
6
ByLayer
62
256
370
-1
100
AcDbLine
10
0.6
20
-143.492424049
11
0.6
21
-146.901826677
0
LINE
5
7A7
100
AcDbEntity
8
anode-cathode-hole
6
ByLayer
62
256
370
-1
100
AcDbLine
10
-0.6
20
-143.492424049
11
-0.6
21
-146.901826677
0
LINE
5
7A8
100
AcDbEntity
8
anode-cathode-hole
6
ByLayer
62
256
370
-1
100
AcDbLine
10
-0.6
20
-143.492424049
11
0.6
21
-143.492424049
0
CIRCLE
5
7A9
100
AcDbEntity
8
hole2
6
ByLayer
62
256
370
-1
100
AcDbCircle
10
0
20
0
40
2.5
0
CIRCLE
5
7AA
100
AcDbEntity
8
hole2
6
ByLayer
62
256
370
-1
100
AcDbCircle
10
10.6066017178
20
-10.6066017178
40
2.5
0
CIRCLE
5
7AB
100
AcDbEntity
8
hole2
6
ByLayer
62
256
370
-1
100
AcDbCircle
10
21.2132034356
20
-21.2132034356
40
2.5
0
CIRCLE
5
7AC
100
AcDbEntity
8
hole2
6
ByLayer
62
256
370
-1
100
AcDbCircle
10
31.8198051534
20
-31.8198051534
40
2.5
0
CIRCLE
5
7AD
100
AcDbEntity
8
hole2
6
ByLayer
62
256
370
-1
100
AcDbCircle
10
42.4264068712
20
-42.4264068712
40
2.5
0
CIRCLE
5
7AE
100
AcDbEntity
8
hole2
6
ByLayer
62
256
370
-1
100
AcDbCircle
10
53.033008589
20
-53.033008589
40
2.5
0
CIRCLE
5
7AF
100
AcDbEntity
8
hole2
6
ByLayer
62
256
370
-1
100
AcDbCircle
10
63.6396103068
20
-63.6396103068
40
2.5
0
CIRCLE
5
7B0
100
AcDbEntity
8
hole2
6
ByLayer
62
256
370
-1
100
AcDbCircle
10
74.2462120246
20
-74.2462120246
40
2.5
0
CIRCLE
5
7B1
100
AcDbEntity
8
hole2
6
ByLayer
62
256
370
-1
100
AcDbCircle
10
-10.6066017178
20
-10.6066017178
40
2.5
0
CIRCLE
5
7B2
100
AcDbEntity
8
hole2
6
ByLayer
62
256
370
-1
100
AcDbCircle
10
0
20
-21.2132034356
40
2.5
0
CIRCLE
5
7B3
100
AcDbEntity
8
hole2
6
ByLayer
62
256
370
-1
100
AcDbCircle
10
10.6066017178
20
-31.8198051534
40
2.5
0
CIRCLE
5
7B4
100
AcDbEntity
8
hole2
6
ByLayer
62
256
370
-1
100
AcDbCircle
10
21.2132034356
20
-42.4264068712
40
2.5
0
CIRCLE
5
7B5
100
AcDbEntity
8
hole2
6
ByLayer
62
256
370
-1
100
AcDbCircle
10
31.8198051534
20
-53.033008589
40
2.5
0
CIRCLE
5
7B6
100
AcDbEntity
8
hole2
6
ByLayer
62
256
370
-1
100
AcDbCircle
10
42.4264068712
20
-63.6396103068
40
2.5
0
CIRCLE
5
7B7
100
AcDbEntity
8
hole2
6
ByLayer
62
256
370
-1
100
AcDbCircle
10
53.033008589
20
-74.2462120246
40
2.5
0
CIRCLE
5
7B8
100
AcDbEntity
8
hole2
6
ByLayer
62
256
370
-1
100
AcDbCircle
10
63.6396103068
20
-84.8528137424
40
2.5
0
CIRCLE
5
7B9
100
AcDbEntity
8
hole2
6
ByLayer
62
256
370
-1
100
AcDbCircle
10
-21.2132034356
20
-21.2132034356
40
2.5
0
CIRCLE
5
7BA
100
AcDbEntity
8
hole2
6
ByLayer
62
256
370
-1
100
AcDbCircle
10
-10.6066017178
20
-31.8198051534
40
2.5
0
CIRCLE
5
7BB
100
AcDbEntity
8
hole2
6
ByLayer
62
256
370
-1
100
AcDbCircle
10
0
20
-42.4264068712
40
2.5
0
CIRCLE
5
7BC
100
AcDbEntity
8
hole2
6
ByLayer
62
256
370
-1
100
AcDbCircle
10
10.6066017178
20
-53.033008589
40
2.5
0
CIRCLE
5
7BD
100
AcDbEntity
8
hole2
6
ByLayer
62
256
370
-1
100
AcDbCircle
10
21.2132034356
20
-63.6396103068
40
2.5
0
CIRCLE
5
7BE
100
AcDbEntity
8
hole2
6
ByLayer
62
256
370
-1
100
AcDbCircle
10
31.8198051534
20
-74.2462120246
40
2.5
0
CIRCLE
5
7BF
100
AcDbEntity
8
hole2
6
ByLayer
62
256
370
-1
100
AcDbCircle
10
42.4264068712
20
-84.8528137424
40
2.5
0
CIRCLE
5
7C0
100
AcDbEntity
8
hole2
6
ByLayer
62
256
370
-1
100
AcDbCircle
10
53.033008589
20
-95.4594154602
40
2.5
0
CIRCLE
5
7C1
100
AcDbEntity
8
hole2
6
ByLayer
62
256
370
-1
100
AcDbCircle
10
-31.8198051534
20
-31.8198051534
40
2.5
0
CIRCLE
5
7C2
100
AcDbEntity
8
hole2
6
ByLayer
62
256
370
-1
100
AcDbCircle
10
-21.2132034356
20
-42.4264068712
40
2.5
0
CIRCLE
5
7C3
100
AcDbEntity
8
hole2
6
ByLayer
62
256
370
-1
100
AcDbCircle
10
-10.6066017178
20
-53.033008589
40
2.5
0
CIRCLE
5
7C4
100
AcDbEntity
8
hole2
6
ByLayer
62
256
370
-1
100
AcDbCircle
10
0
20
-63.6396103068
40
2.5
0
CIRCLE
5
7C5
100
AcDbEntity
8
hole2
6
ByLayer
62
256
370
-1
100
AcDbCircle
10
10.6066017178
20
-74.2462120246
40
2.5
0
CIRCLE
5
7C6
100
AcDbEntity
8
hole2
6
ByLayer
62
256
370
-1
100
AcDbCircle
10
21.2132034356
20
-84.8528137424
40
2.5
0
CIRCLE
5
7C7
100
AcDbEntity
8
hole2
6
ByLayer
62
256
370
-1
100
AcDbCircle
10
31.8198051534
20
-95.4594154602
40
2.5
0
CIRCLE
5
7C8
100
AcDbEntity
8
hole2
6
ByLayer
62
256
370
-1
100
AcDbCircle
10
42.4264068712
20
-106.066017178
40
2.5
0
CIRCLE
5
7C9
100
AcDbEntity
8
hole2
6
ByLayer
62
256
370
-1
100
AcDbCircle
10
-42.4264068712
20
-42.4264068712
40
2.5
0
CIRCLE
5
7CA
100
AcDbEntity
8
hole2
6
ByLayer
62
256
370
-1
100
AcDbCircle
10
-31.8198051534
20
-53.033008589
40
2.5
0
CIRCLE
5
7CB
100
AcDbEntity
8
hole2
6
ByLayer
62
256
370
-1
100
AcDbCircle
10
-21.2132034356
20
-63.6396103068
40
2.5
0
CIRCLE
5
7CC
100
AcDbEntity
8
hole2
6
ByLayer
62
256
370
-1
100
AcDbCircle
10
-10.6066017178
20
-74.2462120246
40
2.5
0
CIRCLE
5
7CD
100
AcDbEntity
8
hole2
6
ByLayer
62
256
370
-1
100
AcDbCircle
10
0
20
-84.8528137424
40
2.5
0
CIRCLE
5
7CE
100
AcDbEntity
8
hole2
6
ByLayer
62
256
370
-1
100
AcDbCircle
10
10.6066017178
20
-95.4594154602
40
2.5
0
CIRCLE
5
7CF
100
AcDbEntity
8
hole2
6
ByLayer
62
256
370
-1
100
AcDbCircle
10
21.2132034356
20
-106.066017178
40
2.5
0
CIRCLE
5
7D0
100
AcDbEntity
8
hole2
6
ByLayer
62
256
370
-1
100
AcDbCircle
10
31.8198051534
20
-116.672618896
40
2.5
0
CIRCLE
5
7D1
100
AcDbEntity
8
hole2
6
ByLayer
62
256
370
-1
100
AcDbCircle
10
-53.033008589
20
-53.033008589
40
2.5
0
CIRCLE
5
7D2
100
AcDbEntity
8
hole2
6
ByLayer
62
256
370
-1
100
AcDbCircle
10
-42.4264068712
20
-63.6396103068
40
2.5
0
CIRCLE
5
7D3
100
AcDbEntity
8
hole2
6
ByLayer
62
256
370
-1
100
AcDbCircle
10
-31.8198051534
20
-74.2462120246
40
2.5
0
CIRCLE
5
7D4
100
AcDbEntity
8
hole2
6
ByLayer
62
256
370
-1
100
AcDbCircle
10
-21.2132034356
20
-84.8528137424
40
2.5
0
CIRCLE
5
7D5
100
AcDbEntity
8
hole2
6
ByLayer
62
256
370
-1
100
AcDbCircle
10
-10.6066017178
20
-95.4594154602
40
2.5
0
CIRCLE
5
7D6
100
AcDbEntity
8
hole2
6
ByLayer
62
256
370
-1
100
AcDbCircle
10
0
20
-106.066017178
40
2.5
0
CIRCLE
5
7D7
100
AcDbEntity
8
hole2
6
ByLayer
62
256
370
-1
100
AcDbCircle
10
10.6066017178
20
-116.672618896
40
2.5
0
CIRCLE
5
7D8
100
AcDbEntity
8
hole2
6
ByLayer
62
256
370
-1
100
AcDbCircle
10
21.2132034356
20
-127.279220614
40
2.5
0
CIRCLE
5
7D9
100
AcDbEntity
8
hole2
6
ByLayer
62
256
370
-1
100
AcDbCircle
10
-63.6396103068
20
-63.6396103068
40
2.5
0
CIRCLE
5
7DA
100
AcDbEntity
8
hole2
6
ByLayer
62
256
370
-1
100
AcDbCircle
10
-53.033008589
20
-74.2462120246
40
2.5
0
CIRCLE
5
7DB
100
AcDbEntity
8
hole2
6
ByLayer
62
256
370
-1
100
AcDbCircle
10
-42.4264068712
20
-84.8528137424
40
2.5
0
CIRCLE
5
7DC
100
AcDbEntity
8
hole2
6
ByLayer
62
256
370
-1
100
AcDbCircle
10
-31.8198051534
20
-95.4594154602
40
2.5
0
CIRCLE
5
7DD
100
AcDbEntity
8
hole2
6
ByLayer
62
256
370
-1
100
AcDbCircle
10
-21.2132034356
20
-106.066017178
40
2.5
0
CIRCLE
5
7DE
100
AcDbEntity
8
hole2
6
ByLayer
62
256
370
-1
100
AcDbCircle
10
-10.6066017178
20
-116.672618896
40
2.5
0
CIRCLE
5
7DF
100
AcDbEntity
8
hole2
6
ByLayer
62
256
370
-1
100
AcDbCircle
10
0
20
-127.279220614
40
2.5
0
CIRCLE
5
7E0
100
AcDbEntity
8
hole2
6
ByLayer
62
256
370
-1
100
AcDbCircle
10
10.6066017178
20
-137.885822331
40
2.5
0
CIRCLE
5
7E1
100
AcDbEntity
8
hole2
6
ByLayer
62
256
370
-1
100
AcDbCircle
10
-74.2462120246
20
-74.2462120246
40
2.5
0
CIRCLE
5
7E2
100
AcDbEntity
8
hole2
6
ByLayer
62
256
370
-1
100
AcDbCircle
10
-63.6396103068
20
-84.8528137424
40
2.5
0
CIRCLE
5
7E3
100
AcDbEntity
8
hole2
6
ByLayer
62
256
370
-1
100
AcDbCircle
10
-53.033008589
20
-95.4594154602
40
2.5
0
CIRCLE
5
7E4
100
AcDbEntity
8
hole2
6
ByLayer
62
256
370
-1
100
AcDbCircle
10
-42.4264068712
20
-106.066017178
40
2.5
0
CIRCLE
5
7E5
100
AcDbEntity
8
hole2
6
ByLayer
62
256
370
-1
100
AcDbCircle
10
-31.8198051534
20
-116.672618896
40
2.5
0
CIRCLE
5
7E6
100
AcDbEntity
8
hole2
6
ByLayer
62
256
370
-1
100
AcDbCircle
10
-21.2132034356
20
-127.279220614
40
2.5
0
CIRCLE
5
7E7
100
AcDbEntity
8
hole2
6
ByLayer
62
256
370
-1
100
AcDbCircle
10
-10.6066017178
20
-137.885822331
40
2.5
0
CIRCLE
5
7E8
100
AcDbEntity
8
hole2
6
ByLayer
62
256
370
-1
100
AcDbCircle
10
0
20
-148.492424049
40
2.5
0
ENDSEC
0
SECTION
2
OBJECTS
0
DICTIONARY
5
C
330
0
100
AcDbDictionary
281
1
3
ACAD_GROUP
350
D
0
DICTIONARY
5
D
330
C
100
AcDbDictionary
281
1
0
ENDSEC
0
EOF
