999
dxfrw 0.6.3
  0
SECTION
  2
HEADER
  9
$ACADVER
  1
AC1021
  9
$DWGCODEPAGE
  3
ANSI_1252
  9
$INSBASE
 10
0
 20
0
 30
0
  9
$EXTMIN
 10
-7.018401483136402
 20
-7.740270990351511
 30
0
  9
$EXTMAX
 10
124.9425829831874
 20
38.2604894753764
 30
0
  9
$LIMMIN
 10
0
 20
0
  9
$LIMMAX
 10
420
 20
297
  9
$ORTHOMODE
 70
    0
  9
$REGENMODE
 70
    1
  9
$FILLMODE
 70
    1
  9
$QTEXTMODE
 70
    0
  9
$MIRRTEXT
 70
    0
  9
$LTSCALE
 40
1
  9
$ATTMODE
 70
    0
  9
$TEXTSIZE
 40
2.5
  9
$TRACEWID
 40
15.68
  9
$TEXTSTYLE
  7
STANDARD
  9
$CLAYER
  8
0
  9
$CELTYPE
  6
BYLAYER
  9
$CECOLOR
 62
  256
  9
$CELTSCALE
 40
1
  9
$DISPSILH
 70
    0
  9
$DIMSCALE
 40
1
  9
$DIMASZ
 40
2.5
  9
$DIMEXO
 40
0.625
  9
$DIMDLI
 40
3.75
  9
$DIMRND
 40
0
  9
$DIMDLE
 40
0
  9
$DIMEXE
 40
1.25
  9
$DIMTP
 40
0
  9
$DIMTM
 40
0
  9
$DIMTXT
 40
2.5
  9
$DIMCEN
 40
2.5
  9
$DIMTSZ
 40
0
  9
$DIMTOL
 70
    0
  9
$DIMLIM
 70
    0
  9
$DIMTIH
 70
    0
  9
$DIMTOH
 70
    0
  9
$DIMSE1
 70
    0
  9
$DIMSE2
 70
    0
  9
$DIMTAD
 70
    1
  9
$DIMZIN
 70
    8
  9
$DIMBLK
  1

  9
$DIMASO
 70
    1
  9
$DIMSHO
 70
    1
  9
$DIMPOST
  1

  9
$DIMAPOST
  1

  9
$DIMALT
 70
    0
  9
$DIMALTD
 70
    3
  9
$DIMALTF
 40
0.03937
  9
$DIMLFAC
 40
1
  9
$DIMTOFL
 70
    1
  9
$DIMTVP
 40
0
  9
$DIMTIX
 70
    0
  9
$DIMSOXD
 70
    0
  9
$DIMSAH
 70
    0
  9
$DIMBLK1
  1

  9
$DIMBLK2
  1

  9
$DIMSTYLE
  2
Standard
  9
$DIMCLRD
 70
    0
  9
$DIMCLRE
 70
    0
  9
$DIMCLRT
 70
    0
  9
$DIMTFAC
 40
1
  9
$DIMGAP
 40
0.625
  9
$DIMJUST
 70
    0
  9
$DIMSD1
 70
    0
  9
$DIMSD2
 70
    0
  9
$DIMTOLJ
 70
    0
  9
$DIMTZIN
 70
    8
  9
$DIMALTZ
 70
    0
  9
$DIMALTTZ
 70
    0
  9
$DIMUPT
 70
    0
  9
$DIMDEC
 70
    2
  9
$DIMTDEC
 70
    2
  9
$DIMALTU
 70
    2
  9
$DIMALTTD
 70
    3
  9
$DIMTXSTY
  7
STANDARD
  9
$DIMAUNIT
 70
    0
  9
$DIMADEC
 70
    0
  9
$DIMALTRND
 40
0
  9
$DIMAZIN
 70
    0
  9
$DIMDSEP
 70
   44
  9
$DIMATFIT
 70
    3
  9
$DIMFRAC
 70
    0
  9
$DIMLDRBLK
  1
STANDARD
  9
$DIMLUNIT
 70
    2
  9
$DIMLWD
 70
   -2
  9
$DIMLWE
 70
   -2
  9
$DIMTMOVE
 70
    0
  9
$DIMFXL
 40
1
  9
$DIMFXLON
 70
    0
  9
$DIMJOGANG
 40
0.7854
  9
$DIMTFILL
 70
    0
  9
$DIMTFILLCLR
 70
    0
  9
$DIMARCSYM
 70
    0
  9
$DIMLTYPE
  6

  9
$DIMLTEX1
  6

  9
$DIMLTEX2
  6

  9
$LUNITS
 70
    2
  9
$LUPREC
 70
    4
  9
$SKETCHINC
 40
1
  9
$FILLETRAD
 40
0
  9
$AUNITS
 70
    0
  9
$AUPREC
 70
    2
  9
$MENU
  1
.
  9
$ELEVATION
 40
0
  9
$PELEVATION
 40
0
  9
$THICKNESS
 40
0
  9
$LIMCHECK
 70
    0
  9
$CHAMFERA
 40
0
  9
$CHAMFERB
 40
0
  9
$CHAMFERC
 40
0
  9
$CHAMFERD
 40
0
  9
$SKPOLY
 70
    0
  9
$USRTIMER
 70
    1
  9
$ANGBASE
 50
0
  9
$ANGDIR
 70
    0
  9
$PDMODE
 70
   34
  9
$PDSIZE
 40
0
  9
$PLINEWID
 40
0
  9
$SPLFRAME
 70
    0
  9
$SPLINETYPE
 70
    2
  9
$SPLINESEGS
 70
    8
  9
$HANDSEED
  5
20000
  9
$SURFTAB1
 70
    6
  9
$SURFTAB2
 70
    6
  9
$SURFTYPE
 70
    6
  9
$SURFU
 70
    6
  9
$SURFV
 70
    6
  9
$UCSBASE
  2

  9
$UCSNAME
  2

  9
$UCSORG
 10
0
 20
0
 30
0
  9
$UCSXDIR
 10
1
 20
0
 30
0
  9
$UCSYDIR
 10
0
 20
1
 30
0
  9
$UCSORTHOREF
  2

  9
$UCSORTHOVIEW
 70
    0
  9
$UCSORGTOP
 10
0
 20
0
 30
0
  9
$UCSORGBOTTOM
 10
0
 20
0
 30
0
  9
$UCSORGLEFT
 10
0
 20
0
 30
0
  9
$UCSORGRIGHT
 10
0
 20
0
 30
0
  9
$UCSORGFRONT
 10
0
 20
0
 30
0
  9
$UCSORGBACK
 10
0
 20
0
 30
0
  9
$PUCSBASE
  2

  9
$PUCSNAME
  2

  9
$PUCSORG
 10
0
 20
0
 30
0
  9
$PUCSXDIR
 10
1
 20
0
 30
0
  9
$PUCSYDIR
 10
0
 20
1
 30
0
  9
$PUCSORTHOREF
  2

  9
$PUCSORTHOVIEW
 70
    0
  9
$PUCSORGTOP
 10
0
 20
0
 30
0
  9
$PUCSORGBOTTOM
 10
0
 20
0
 30
0
  9
$PUCSORGLEFT
 10
0
 20
0
 30
0
  9
$PUCSORGRIGHT
 10
0
 20
0
 30
0
  9
$PUCSORGFRONT
 10
0
 20
0
 30
0
  9
$PUCSORGBACK
 10
0
 20
0
 30
0
  9
$USERI1
 70
    0
  9
$USERI2
 70
    0
  9
$USERI3
 70
    0
  9
$USERI4
 70
    0
  9
$USERI5
 70
    0
  9
$USERR1
 40
0
  9
$USERR2
 40
0
  9
$USERR3
 40
0
  9
$USERR4
 40
0
  9
$USERR5
 40
0
  9
$WORLDVIEW
 70
    1
  9
$SHADEDGE
 70
    3
  9
$SHADEDIF
 70
   70
  9
$TILEMODE
 70
    1
  9
$MAXACTVP
 70
   64
  9
$PINSBASE
 10
0
 20
0
 30
0
  9
$PLIMCHECK
 70
    0
  9
$PEXTMIN
 10
0
 20
0
 30
0
  9
$PEXTMAX
 10
0
 20
0
 30
0
  9
$GRIDMODE
 70
    0
  9
$SNAPSTYLE
 70
    0
  9
$PLIMMIN
 10
0
 20
0
  9
$PLIMMAX
 10
297
 20
210
  9
$UNITMODE
 70
    0
  9
$VISRETAIN
 70
    1
  9
$PLINEGEN
 70
    0
  9
$PSLTSCALE
 70
    1
  9
$TREEDEPTH
 70
 3020
  9
$CMLSTYLE
  2
Standard
  9
$CMLJUST
 70
    0
  9
$CMLSCALE
 40
20
  9
$PROXYGRAPHICS
 70
    1
  9
$MEASUREMENT
 70
    1
  9
$CELWEIGHT
370
   -1
  9
$ENDCAPS
280
    0
  9
$JOINSTYLE
280
    0
  9
$LWDISPLAY
290
    0
  9
$INSUNITS
 70
    4
  9
$HYPERLINKBASE
  1

  9
$STYLESHEET
  1

  9
$XEDIT
290
    1
  9
$CEPSNTYPE
380
    0
  9
$PSTYLEMODE
290
    1
  9
$EXTNAMES
290
    1
  9
$PSVPSCALE
 40
1
  9
$OLESTARTUP
290
    0
  9
$SORTENTS
280
  127
  9
$INDEXCTL
280
    0
  9
$HIDETEXT
280
    1
  9
$XCLIPFRAME
290
    0
  9
$HALOGAP
280
    0
  9
$OBSCOLOR
 70
  257
  9
$OBSLTYPE
280
    0
  9
$INTERSECTIONDISPLAY
280
    0
  9
$INTERSECTIONCOLOR
 70
  257
  9
$DIMASSOC
280
    1
  9
$PROJECTNAME
  1

  9
$CAMERADISPLAY
290
    0
  9
$LENSLENGTH
 40
50
  9
$CAMERAHEIGHT
 40
0
  9
$STEPSPERSEC
 40
2
  9
$STEPSIZE
 40
50
  9
$3DDWFPREC
 40
2
  9
$PSOLWIDTH
 40
5
  9
$PSOLHEIGHT
 40
80
  9
$LOFTANG1
 40
1.570796326794897
  9
$LOFTANG2
 40
1.570796326794897
  9
$LOFTMAG1
 40
0
  9
$LOFTMAG2
 40
0
  9
$LOFTPARAM
 70
    7
  9
$LOFTNORMALS
280
    1
  9
$LATITUDE
 40
1
  9
$LONGITUDE
 40
1
  9
$NORTHDIRECTION
 40
0
  9
$TIMEZONE
 70
-8000
  9
$LIGHTGLYPHDISPLAY
280
    1
  9
$TILEMODELIGHTSYNCH
280
    1
  9
$SOLIDHIST
280
    1
  9
$SHOWHIST
280
    1
  9
$DWFFRAME
280
    2
  9
$DGNFRAME
280
    0
  9
$REALWORLDSCALE
290
    1
  9
$INTERFERECOLOR
 62
    1
  9
$CSHADOW
280
    0
  9
$SHADOWPLANELOCATION
 40
0
  0
ENDSEC
  0
SECTION
  2
CLASSES
  0
ENDSEC
  0
SECTION
  2
TABLES
  0
TABLE
  2
VPORT
  5
8
330
0
100
AcDbSymbolTable
 70
    1
  0
VPORT
  5
31
330
2
100
AcDbSymbolTableRecord
100
AcDbViewportTableRecord
  2
*ACTIVE
 70
    0
 10
0
 20
0
 11
1
 21
1
 12
109.6046800825377
 22
51.3712370125981
 13
0
 23
0
 14
10
 24
10
 15
10
 25
10
 16
0
 26
0
 36
1
 17
0
 27
0
 37
0
 40
154.7808699600358
 41
1.708128078817734
 42
50
 43
0
 44
0
 50
0
 51
0
 71
    0
 72
  100
 73
    1
 74
    3
 75
    0
 76
    0
 77
    0
 78
    0
281
    0
 65
    1
110
0
120
0
130
0
111
1
121
0
131
0
112
0
122
1
132
0
 79
    0
146
0
348
10020
 60
    7
 61
    5
292
1
282
    1
141
0
142
0
 63
  250
421
3358443
  0
ENDTAB
  0
TABLE
  2
LTYPE
  5
5
330
0
100
AcDbSymbolTable
 70
    4
  0
LTYPE
  5
14
330
5
100
AcDbSymbolTableRecord
100
AcDbLinetypeTableRecord
  2
ByBlock
 70
    0
  3

 72
   65
 73
    0
 40
0
  0
LTYPE
  5
15
330
5
100
AcDbSymbolTableRecord
100
AcDbLinetypeTableRecord
  2
ByLayer
 70
    0
  3

 72
   65
 73
    0
 40
0
  0
LTYPE
  5
16
330
5
100
AcDbSymbolTableRecord
100
AcDbLinetypeTableRecord
  2
Continuous
 70
    0
  3
Solid line
 72
   65
 73
    0
 40
0
  0
LTYPE
  5
32
330
5
100
AcDbSymbolTableRecord
100
AcDbLinetypeTableRecord
  2
DOT
 70
    0
  3
Dot . . . . . . . . . . . . . . . . . . . . . .
 72
   65
 73
    2
 40
6.35
 49
0
 74
    0
 49
-6.35
 74
    0
  0
LTYPE
  5
33
330
5
100
AcDbSymbolTableRecord
100
AcDbLinetypeTableRecord
  2
DOTTINY
 70
    0
  3
Dot (.15x) .....................................
 72
   65
 73
    2
 40
0.9525
 49
0
 74
    0
 49
-0.9525
 74
    0
  0
LTYPE
  5
34
330
5
100
AcDbSymbolTableRecord
100
AcDbLinetypeTableRecord
  2
DOT2
 70
    0
  3
Dot (.5x) .....................................
 72
   65
 73
    2
 40
3.175
 49
0
 74
    0
 49
-3.175
 74
    0
  0
LTYPE
  5
35
330
5
100
AcDbSymbolTableRecord
100
AcDbLinetypeTableRecord
  2
DOTX2
 70
    0
  3
Dot (2x) .  .  .  .  .  .  .  .  .  .  .  .  .
 72
   65
 73
    2
 40
12.7
 49
0
 74
    0
 49
-12.7
 74
    0
  0
LTYPE
  5
36
330
5
100
AcDbSymbolTableRecord
100
AcDbLinetypeTableRecord
  2
DASHED
 70
    0
  3
Dashed _ _ _ _ _ _ _ _ _ _ _ _ _ _ _ _ _
 72
   65
 73
    2
 40
19.05
 49
12.7
 74
    0
 49
-6.35
 74
    0
  0
LTYPE
  5
37
330
5
100
AcDbSymbolTableRecord
100
AcDbLinetypeTableRecord
  2
DASHEDTINY
 70
    0
  3
Dashed (.15x) _ _ _ _ _ _ _ _ _ _ _ _ _ _ _ _ _
 72
   65
 73
    2
 40
2.8575
 49
1.905
 74
    0
 49
-0.9525
 74
    0
  0
LTYPE
  5
38
330
5
100
AcDbSymbolTableRecord
100
AcDbLinetypeTableRecord
  2
DASHED2
 70
    0
  3
Dashed (.5x) _ _ _ _ _ _ _ _ _ _ _ _ _ _ _ _ _
 72
   65
 73
    2
 40
9.524999999999999
 49
6.35
 74
    0
 49
-3.175
 74
    0
  0
LTYPE
  5
39
330
5
100
AcDbSymbolTableRecord
100
AcDbLinetypeTableRecord
  2
DASHEDX2
 70
    0
  3
Dashed (2x) ____  ____  ____  ____  ____  ___
 72
   65
 73
    2
 40
38.09999999999999
 49
25.4
 74
    0
 49
-12.7
 74
    0
  0
LTYPE
  5
3A
330
5
100
AcDbSymbolTableRecord
100
AcDbLinetypeTableRecord
  2
DASHDOT
 70
    0
  3
Dash dot __ . __ . __ . __ . __ . __ . __ . __
 72
   65
 73
    4
 40
25.4
 49
12.7
 74
    0
 49
-6.35
 74
    0
 49
0
 74
    0
 49
-6.35
 74
    0
  0
LTYPE
  5
3B
330
5
100
AcDbSymbolTableRecord
100
AcDbLinetypeTableRecord
  2
DASHDOTTINY
 70
    0
  3
Dash dot (.15x) _._._._._._._._._._._._._._._.
 72
   65
 73
    4
 40
3.81
 49
1.905
 74
    0
 49
-0.9525
 74
    0
 49
0
 74
    0
 49
-0.9525
 74
    0
  0
LTYPE
  5
3C
330
5
100
AcDbSymbolTableRecord
100
AcDbLinetypeTableRecord
  2
DASHDOT2
 70
    0
  3
Dash dot (.5x) _._._._._._._._._._._._._._._.
 72
   65
 73
    4
 40
12.7
 49
6.35
 74
    0
 49
-3.175
 74
    0
 49
0
 74
    0
 49
-3.175
 74
    0
  0
LTYPE
  5
3D
330
5
100
AcDbSymbolTableRecord
100
AcDbLinetypeTableRecord
  2
DASHDOTX2
 70
    0
  3
Dash dot (2x) ____  .  ____  .  ____  .  ___
 72
   65
 73
    4
 40
50.8
 49
25.4
 74
    0
 49
-12.7
 74
    0
 49
0
 74
    0
 49
-12.7
 74
    0
  0
LTYPE
  5
3E
330
5
100
AcDbSymbolTableRecord
100
AcDbLinetypeTableRecord
  2
DIVIDE
 70
    0
  3
Divide ____ . . ____ . . ____ . . ____ . . ____
 72
   65
 73
    6
 40
31.75
 49
12.7
 74
    0
 49
-6.35
 74
    0
 49
0
 74
    0
 49
-6.35
 74
    0
 49
0
 74
    0
 49
-6.35
 74
    0
  0
LTYPE
  5
3F
330
5
100
AcDbSymbolTableRecord
100
AcDbLinetypeTableRecord
  2
DIVIDETINY
 70
    0
  3
Divide (.15x) __..__..__..__..__..__..__..__.._
 72
   65
 73
    6
 40
4.7625
 49
1.905
 74
    0
 49
-0.9525
 74
    0
 49
0
 74
    0
 49
-0.9525
 74
    0
 49
0
 74
    0
 49
-0.9525
 74
    0
  0
LTYPE
  5
40
330
5
100
AcDbSymbolTableRecord
100
AcDbLinetypeTableRecord
  2
DIVIDE2
 70
    0
  3
Divide (.5x) __..__..__..__..__..__..__..__.._
 72
   65
 73
    6
 40
15.875
 49
6.35
 74
    0
 49
-3.175
 74
    0
 49
0
 74
    0
 49
-3.175
 74
    0
 49
0
 74
    0
 49
-3.175
 74
    0
  0
LTYPE
  5
41
330
5
100
AcDbSymbolTableRecord
100
AcDbLinetypeTableRecord
  2
DIVIDEX2
 70
    0
  3
Divide (2x) ________  .  .  ________  .  .  _
 72
   65
 73
    6
 40
63.5
 49
25.4
 74
    0
 49
-12.7
 74
    0
 49
0
 74
    0
 49
-12.7
 74
    0
 49
0
 74
    0
 49
-12.7
 74
    0
  0
LTYPE
  5
42
330
5
100
AcDbSymbolTableRecord
100
AcDbLinetypeTableRecord
  2
BORDER
 70
    0
  3
Border __ __ . __ __ . __ __ . __ __ . __ __ .
 72
   65
 73
    6
 40
44.45
 49
12.7
 74
    0
 49
-6.35
 74
    0
 49
12.7
 74
    0
 49
-6.35
 74
    0
 49
0
 74
    0
 49
-6.35
 74
    0
  0
LTYPE
  5
43
330
5
100
AcDbSymbolTableRecord
100
AcDbLinetypeTableRecord
  2
BORDERTINY
 70
    0
  3
Border (.15x) __.__.__.__.__.__.__.__.__.__.__.
 72
   65
 73
    6
 40
6.6675
 49
1.905
 74
    0
 49
-0.9525
 74
    0
 49
1.905
 74
    0
 49
-0.9525
 74
    0
 49
0
 74
    0
 49
-0.9525
 74
    0
  0
LTYPE
  5
44
330
5
100
AcDbSymbolTableRecord
100
AcDbLinetypeTableRecord
  2
BORDER2
 70
    0
  3
Border (.5x) __.__.__.__.__.__.__.__.__.__.__.
 72
   65
 73
    6
 40
22.225
 49
6.35
 74
    0
 49
-3.175
 74
    0
 49
6.35
 74
    0
 49
-3.175
 74
    0
 49
0
 74
    0
 49
-3.175
 74
    0
  0
LTYPE
  5
45
330
5
100
AcDbSymbolTableRecord
100
AcDbLinetypeTableRecord
  2
BORDERX2
 70
    0
  3
Border (2x) ____  ____  .  ____  ____  .  ___
 72
   65
 73
    6
 40
88.89999999999999
 49
25.4
 74
    0
 49
-12.7
 74
    0
 49
25.4
 74
    0
 49
-12.7
 74
    0
 49
0
 74
    0
 49
-12.7
 74
    0
  0
LTYPE
  5
46
330
5
100
AcDbSymbolTableRecord
100
AcDbLinetypeTableRecord
  2
CENTER
 70
    0
  3
Center ____ _ ____ _ ____ _ ____ _ ____ _ ____
 72
   65
 73
    4
 40
50.8
 49
31.75
 74
    0
 49
-6.35
 74
    0
 49
6.35
 74
    0
 49
-6.35
 74
    0
  0
LTYPE
  5
47
330
5
100
AcDbSymbolTableRecord
100
AcDbLinetypeTableRecord
  2
CENTERTINY
 70
    0
  3
Center (.15x) ___ _ ___ _ ___ _ ___ _ ___ _ ___
 72
   65
 73
    4
 40
7.619999999999999
 49
4.7625
 74
    0
 49
-0.9525
 74
    0
 49
0.9525
 74
    0
 49
-0.9525
 74
    0
  0
LTYPE
  5
48
330
5
100
AcDbSymbolTableRecord
100
AcDbLinetypeTableRecord
  2
CENTER2
 70
    0
  3
Center (.5x) ___ _ ___ _ ___ _ ___ _ ___ _ ___
 72
   65
 73
    4
 40
28.575
 49
19.05
 74
    0
 49
-3.175
 74
    0
 49
3.175
 74
    0
 49
-3.175
 74
    0
  0
LTYPE
  5
49
330
5
100
AcDbSymbolTableRecord
100
AcDbLinetypeTableRecord
  2
CENTERX2
 70
    0
  3
Center (2x) ________  __  ________  __  _____
 72
   65
 73
    4
 40
101.6
 49
63.5
 74
    0
 49
-12.7
 74
    0
 49
12.7
 74
    0
 49
-12.7
 74
    0
  0
ENDTAB
  0
TABLE
  2
LAYER
  5
2
330
0
100
AcDbSymbolTable
 70
    1
  0
LAYER
  5
10
330
2
100
AcDbSymbolTableRecord
100
AcDbLayerTableRecord
  2
0
 70
    0
 62
    7
  6
CONTINUOUS
370
   -3
390
F
  0
ENDTAB
  0
TABLE
  2
STYLE
  5
3
330
0
100
AcDbSymbolTable
 70
    3
  0
STYLE
  5
4A
330
2
100
AcDbSymbolTableRecord
100
AcDbTextStyleTableRecord
  2
Standard
 70
    0
 40
0
 41
1
 50
0
 71
    0
 42
1
  3
txt
  4

  0
ENDTAB
  0
TABLE
  2
VIEW
  5
6
330
0
100
AcDbSymbolTable
 70
    0
  0
ENDTAB
  0
TABLE
  2
UCS
  5
7
330
0
100
AcDbSymbolTable
 70
    0
  0
ENDTAB
  0
TABLE
  2
APPID
  5
9
330
0
100
AcDbSymbolTable
 70
    1
  0
APPID
  5
12
330
9
100
AcDbSymbolTableRecord
100
AcDbRegAppTableRecord
  2
ACAD
 70
    0
  0
APPID
  5
4B
330
9
100
AcDbSymbolTableRecord
100
AcDbRegAppTableRecord
  2
LibreCad
 70
    0
  0
ENDTAB
  0
TABLE
  2
DIMSTYLE
  5
A
330
0
100
AcDbSymbolTable
 70
    1
100
AcDbDimStyleTable
 71
    1
  0
DIMSTYLE
105
4C
330
A
100
AcDbSymbolTableRecord
100
AcDbDimStyleTableRecord
  2
Standard
 70
    0
 40
1
 41
2.5
 42
0.625
 43
0.38
 44
1.25
 45
0
 46
0
 47
0
 48
0
 49
1
140
2.5
141
0.09
142
0
143
25.4
144
1
145
0
146
1
147
0.625
148
0
 71
    0
 72
    0
 73
    0
 74
    1
 75
    0
 76
    0
 77
    0
 78
    8
 79
    0
170
    0
171
    2
172
    0
173
    0
174
    0
175
    0
176
    0
177
    0
178
    0
179
    0
271
    2
272
    4
273
    2
274
    2
275
    0
276
    0
277
    2
278
   44
279
    0
280
    0
281
    0
282
    0
283
    1
284
    0
285
    0
286
    0
288
    0
289
    3
340
STANDARD
341

371
   -2
372
   -2
  0
ENDTAB
  0
TABLE
  2
BLOCK_RECORD
  5
1
330
0
100
AcDbSymbolTable
 70
    2
  0
BLOCK_RECORD
  5
1F
330
1
100
AcDbSymbolTableRecord
100
AcDbBlockTableRecord
  2
*Model_Space
 70
    0
280
    1
281
    0
  0
BLOCK_RECORD
  5
1E
330
1
100
AcDbSymbolTableRecord
100
AcDbBlockTableRecord
  2
*Paper_Space
 70
    0
280
    1
281
    0
  0
ENDTAB
  0
ENDSEC
  0
SECTION
  2
BLOCKS
  0
BLOCK
  5
20
330
1F
100
AcDbEntity
  8
0
100
AcDbBlockBegin
  2
*Model_Space
 70
    0
 10
0
 20
0
 30
0
  3
*Model_Space
  1

  0
ENDBLK
  5
21
330
1F
100
AcDbEntity
  8
0
100
AcDbBlockEnd
  0
BLOCK
  5
1C
330
1B
100
AcDbEntity
  8
0
100
AcDbBlockBegin
  2
*Paper_Space
 70
    0
 10
0
 20
0
 30
0
  3
*Paper_Space
  1

  0
ENDBLK
  5
1D
330
1F
100
AcDbEntity
  8
0
100
AcDbBlockEnd
  0
ENDSEC
  0
SECTION
  2
ENTITIES
  0
SPLINE
  5
4D
100
AcDbEntity
  8
0
  6
ByLayer
 62
    7
370
   -1
100
AcDbSpline
210
0
220
0
230
0
 70
    8
 71
    3
 72
    8
 73
    4
 74
    0
 42
1e-07
 43
1e-07
 40
0
 40
0
 40
0
 40
0
 40
1
 40
1
 40
1
 40
1
 10
-3.019859249974488
 20
22.41468475002551
 30
0
 10
-2.994059249974491
 20
26.45358475002551
 30
0
 10
-0.6629692499744877
 20
30.51476475002551
 30
0
 10
3.194130750025508
 20
32.01043475002551
 30
0
  0
SPLINE
  5
4E
100
AcDbEntity
  8
0
  6
ByLayer
 62
    7
370
   -1
100
AcDbSpline
210
0
220
0
230
0
 70
    8
 71
    3
 72
    8
 73
    4
 74
    0
 42
1e-07
 43
1e-07
 40
0
 40
0
 40
0
 40
0
 40
1
 40
1
 40
1
 40
1
 10
3.194130750025508
 20
32.01043475002551
 30
0
 10
7.369920750025507
 20
33.75924475002552
 30
0
 10
11.91744075002551
 20
34.46696475002551
 30
0
 10
16.39385075002551
 20
34.93926475002552
 30
0
  0
SPLINE
  5
4F
100
AcDbEntity
  8
0
  6
ByLayer
 62
    7
370
   -1
100
AcDbSpline
210
0
220
0
230
0
 70
    8
 71
    3
 72
    8
 73
    4
 74
    0
 42
1e-07
 43
1e-07
 40
0
 40
0
 40
0
 40
0
 40
1
 40
1
 40
1
 40
1
 10
16.39385075002551
 20
34.93926475002552
 30
0
 10
24.99015075002551
 20
35.76851475002551
 30
0
 10
33.86525075002551
 20
35.00096475002551
 30
0
 10
41.95967075002551
 20
31.86941475002551
 30
0
  0
SPLINE
  5
50
100
AcDbEntity
  8
0
  6
ByLayer
 62
    7
370
   -1
100
AcDbSpline
210
0
220
0
230
0
 70
    8
 71
    3
 72
    8
 73
    4
 74
    0
 42
1e-07
 43
1e-07
 40
0
 40
0
 40
0
 40
0
 40
1
 40
1
 40
1
 40
1
 10
41.95967075002551
 20
31.86941475002551
 30
0
 10
44.94015075002551
 20
30.53675475002552
 30
0
 10
48.65225075002551
 20
29.07257475002551
 30
0
 10
49.46209075002551
 20
25.52498475002551
 30
0
  0
SPLINE
  5
51
100
AcDbEntity
  8
0
  6
ByLayer
 62
    7
370
   -1
100
AcDbSpline
210
0
220
0
230
0
 70
    8
 71
    3
 72
    8
 73
    4
 74
    0
 42
1e-07
 43
1e-07
 40
0
 40
0
 40
0
 40
0
 40
1
 40
1
 40
1
 40
1
 10
49.46209075002551
 20
25.52498475002551
 30
0
 10
50.14237075002551
 20
19.40992475002551
 30
0
 10
47.78222075002551
 20
13.47655475002551
 30
0
 10
45.56590075002551
 20
7.898674750025512
 30
0
  0
SPLINE
  5
52
100
AcDbEntity
  8
0
  6
ByLayer
 62
    7
370
   -1
100
AcDbSpline
210
0
220
0
230
0
 70
    8
 71
    3
 72
    8
 73
    4
 74
    0
 42
1e-07
 43
1e-07
 40
0
 40
0
 40
0
 40
0
 40
1
 40
1
 40
1
 40
1
 10
45.56590075002551
 20
7.898674750025512
 30
0
 10
43.47606075002551
 20
3.158644750025513
 30
0
 10
39.76345075002551
 20
-1.291895249974488
 30
0
 10
34.53543075002551
 20
-2.556125249974489
 30
0
  0
SPLINE
  5
53
100
AcDbEntity
  8
0
  6
ByLayer
 62
    7
370
   -1
100
AcDbSpline
210
0
220
0
230
0
 70
    8
 71
    3
 72
    8
 73
    4
 74
    0
 42
1e-07
 43
1e-07
 40
0
 40
0
 40
0
 40
0
 40
1
 40
1
 40
1
 40
1
 10
34.53543075002551
 20
-2.556125249974489
 30
0
 10
26.33960075002551
 20
-5.138345249974488
 30
0
 10
17.34094075002551
 20
-5.554855249974487
 30
0
 10
9.042980750025507
 20
-3.206485249974488
 30
0
  0
SPLINE
  5
54
100
AcDbEntity
  8
0
  6
ByLayer
 62
    7
370
   -1
100
AcDbSpline
210
0
220
0
230
0
 70
    8
 71
    3
 72
    8
 73
    4
 74
    0
 42
1e-07
 43
1e-07
 40
0
 40
0
 40
0
 40
0
 40
1
 40
1
 40
1
 40
1
 10
9.042980750025507
 20
-3.206485249974488
 30
0
 10
5.22776075002551
 20
-2.093845249974486
 30
0
 10
1.831310750025509
 20
0.5518247500255136
 30
0
 10
0.2983007500255113
 20
4.283204750025515
 30
0
  0
SPLINE
  5
55
100
AcDbEntity
  8
0
  6
ByLayer
 62
    7
370
   -1
100
AcDbSpline
210
0
220
0
230
0
 70
    8
 71
    3
 72
    8
 73
    4
 74
    0
 42
1e-07
 43
1e-07
 40
0
 40
0
 40
0
 40
0
 40
1
 40
1
 40
1
 40
1
 10
0.2983007500255113
 20
4.283204750025515
 30
0
 10
-2.458469249974492
 20
9.885704750025514
 30
0
 10
-3.254789249974493
 20
16.23344475002551
 30
0
 10
-3.019859249974488
 20
22.41468475002551
 30
0
  0
LWPOLYLINE
  5
56
100
AcDbEntity
  8
0
  6
ByLayer
 62
    7
370
   -1
100
AcDbPolyline
 90
    1
 70
    1
 43
0
 10
-3.019859249974488
 20
22.41468475002551
  0
SPLINE
  5
57
100
AcDbEntity
  8
0
  6
ByLayer
 62
    7
370
   -1
100
AcDbSpline
210
0
220
0
230
0
 70
    8
 71
    3
 72
    8
 73
    4
 74
    0
 42
1e-07
 43
1e-07
 40
0
 40
0
 40
0
 40
0
 40
1
 40
1
 40
1
 40
1
 10
-6.974253429764577
 20
23.5009675225383
 30
0
 10
-6.944583429764581
 20
28.14570252253829
 30
0
 10
-4.263829929764576
 20
32.81605952253829
 30
0
 10
0.1718350702354172
 20
34.53608002253829
 30
0
  0
SPLINE
  5
58
100
AcDbEntity
  8
0
  6
ByLayer
 62
    7
370
   -1
100
AcDbSpline
210
0
220
0
230
0
 70
    8
 71
    3
 72
    8
 73
    4
 74
    0
 42
1e-07
 43
1e-07
 40
0
 40
0
 40
0
 40
0
 40
1
 40
1
 40
1
 40
1
 10
0.1718350702354172
 20
34.53608002253829
 30
0
 10
4.973993570235418
 20
36.54721152253829
 30
0
 10
10.20364157023542
 20
37.36108952253829
 30
0
 10
15.35151307023542
 20
37.90423452253829
 30
0
  0
SPLINE
  5
59
100
AcDbEntity
  8
0
  6
ByLayer
 62
    7
370
   -1
100
AcDbSpline
210
0
220
0
230
0
 70
    8
 71
    3
 72
    8
 73
    4
 74
    0
 42
1e-07
 43
1e-07
 40
0
 40
0
 40
0
 40
0
 40
1
 40
1
 40
1
 40
1
 10
15.35151307023542
 20
37.90423452253829
 30
0
 10
25.23725807023542
 20
38.85787202253829
 30
0
 10
35.44362307023542
 20
37.97518952253829
 30
0
 10
44.75220607023542
 20
34.37390702253829
 30
0
  0
SPLINE
  5
5A
100
AcDbEntity
  8
0
  6
ByLayer
 62
    7
370
   -1
100
AcDbSpline
210
0
220
0
230
0
 70
    8
 71
    3
 72
    8
 73
    4
 74
    0
 42
1e-07
 43
1e-07
 40
0
 40
0
 40
0
 40
0
 40
1
 40
1
 40
1
 40
1
 10
48.89937057023541
 20
6.807556022538293
 30
0
 10
46.49605457023542
 20
1.356521522538294
 30
0
 10
42.22655307023541
 20
-3.761599477461706
 30
0
 10
36.21433007023542
 20
-5.215463977461704
 30
0
  0
SPLINE
  5
5B
100
AcDbEntity
  8
0
  6
ByLayer
 62
    7
370
   -1
100
AcDbSpline
210
0
220
0
230
0
 70
    8
 71
    3
 72
    8
 73
    4
 74
    0
 42
1e-07
 43
1e-07
 40
0
 40
0
 40
0
 40
0
 40
1
 40
1
 40
1
 40
1
 10
36.21433007023542
 20
-5.215463977461704
 30
0
 10
26.78912557023542
 20
-8.185016977461705
 30
0
 10
16.44066657023542
 20
-8.664003477461707
 30
0
 10
6.898012570235416
 20
-5.963377977461706
 30
0
  0
SPLINE
  5
5C
100
AcDbEntity
  8
0
  6
ByLayer
 62
    7
370
   -1
100
AcDbSpline
210
0
220
0
230
0
 70
    8
 71
    3
 72
    8
 73
    4
 74
    0
 42
1e-07
 43
1e-07
 40
0
 40
0
 40
0
 40
0
 40
1
 40
1
 40
1
 40
1
 10
6.898012570235416
 20
-5.963377977461706
 30
0
 10
2.510509570235421
 20
-4.683841977461705
 30
0
 10
-1.395407929764581
 20
-1.641321477461704
 30
0
 10
-3.158369429764576
 20
2.649765522538297
 30
0
  0
SPLINE
  5
5D
100
AcDbEntity
  8
0
  6
ByLayer
 62
    7
370
   -1
100
AcDbSpline
210
0
220
0
230
0
 70
    8
 71
    3
 72
    8
 73
    4
 74
    0
 42
1e-07
 43
1e-07
 40
0
 40
0
 40
0
 40
0
 40
1
 40
1
 40
1
 40
1
 10
-3.158369429764576
 20
2.649765522538297
 30
0
 10
-6.328654929764582
 20
9.092640522538296
 30
0
 10
-7.244422929764582
 20
16.39254152253829
 30
0
 10
-6.974253429764577
 20
23.5009675225383
 30
0
  0
LWPOLYLINE
  5
5E
100
AcDbEntity
  8
0
  6
ByLayer
 62
    7
370
   -1
100
AcDbPolyline
 90
    1
 70
    1
 43
0
 10
-6.974253429764577
 20
23.5009675225383
  0
SPLINE
  5
5F
100
AcDbEntity
  8
0
  6
ByLayer
 62
    7
370
   -1
100
AcDbSpline
210
0
220
0
230
0
 70
    8
 71
    3
 72
    8
 73
    4
 74
    0
 42
1e-07
 43
1e-07
 40
0
 40
0
 40
0
 40
0
 40
1
 40
1
 40
1
 40
1
 10
120.9440407500255
 20
22.41468475002551
 30
0
 10
120.9182407500255
 20
26.45358475002551
 30
0
 10
118.5871507500255
 20
30.51476475002551
 30
0
 10
114.7300507500255
 20
32.01043475002551
 30
0
  0
SPLINE
  5
60
100
AcDbEntity
  8
0
  6
ByLayer
 62
    7
370
   -1
100
AcDbSpline
210
0
220
0
230
0
 70
    8
 71
    3
 72
    8
 73
    4
 74
    0
 42
1e-07
 43
1e-07
 40
0
 40
0
 40
0
 40
0
 40
1
 40
1
 40
1
 40
1
 10
114.7300507500255
 20
32.01043475002551
 30
0
 10
110.5542607500255
 20
33.75924475002552
 30
0
 10
106.0067407500255
 20
34.46696475002551
 30
0
 10
101.5303307500255
 20
34.93926475002552
 30
0
  0
SPLINE
  5
61
100
AcDbEntity
  8
0
  6
ByLayer
 62
    7
370
   -1
100
AcDbSpline
210
0
220
0
230
0
 70
    8
 71
    3
 72
    8
 73
    4
 74
    0
 42
1e-07
 43
1e-07
 40
0
 40
0
 40
0
 40
0
 40
1
 40
1
 40
1
 40
1
 10
101.5303307500255
 20
34.93926475002552
 30
0
 10
92.93403075002551
 20
35.7685147500255
 30
0
 10
84.05893075002551
 20
35.00096475002551
 30
0
 10
75.96451075002551
 20
31.86941475002551
 30
0
  0
SPLINE
  5
62
100
AcDbEntity
  8
0
  6
ByLayer
 62
    7
370
   -1
100
AcDbSpline
210
0
220
0
230
0
 70
    8
 71
    3
 72
    8
 73
    4
 74
    0
 42
1e-07
 43
1e-07
 40
0
 40
0
 40
0
 40
0
 40
1
 40
1
 40
1
 40
1
 10
75.96451075002551
 20
31.86941475002551
 30
0
 10
72.98403075002551
 20
30.53675475002552
 30
0
 10
69.27193075002552
 20
29.07257475002551
 30
0
 10
68.46209075002551
 20
25.52498475002551
 30
0
  0
SPLINE
  5
63
100
AcDbEntity
  8
0
  6
ByLayer
 62
    7
370
   -1
100
AcDbSpline
210
0
220
0
230
0
 70
    8
 71
    3
 72
    8
 73
    4
 74
    0
 42
1e-07
 43
1e-07
 40
0
 40
0
 40
0
 40
0
 40
1
 40
1
 40
1
 40
1
 10
68.46209075002551
 20
25.52498475002551
 30
0
 10
67.78181075002551
 20
19.40992475002551
 30
0
 10
70.1419607500255
 20
13.47655475002551
 30
0
 10
72.35828075002551
 20
7.898674750025515
 30
0
  0
SPLINE
  5
64
100
AcDbEntity
  8
0
  6
ByLayer
 62
    7
370
   -1
100
AcDbSpline
210
0
220
0
230
0
 70
    8
 71
    3
 72
    8
 73
    4
 74
    0
 42
1e-07
 43
1e-07
 40
0
 40
0
 40
0
 40
0
 40
1
 40
1
 40
1
 40
1
 10
72.35828075002551
 20
7.898674750025515
 30
0
 10
74.44812075002551
 20
3.158644750025516
 30
0
 10
78.16073075002552
 20
-1.29189524997448
 30
0
 10
83.38875075002551
 20
-2.556125249974489
 30
0
  0
SPLINE
  5
65
100
AcDbEntity
  8
0
  6
ByLayer
 62
    7
370
   -1
100
AcDbSpline
210
0
220
0
230
0
 70
    8
 71
    3
 72
    8
 73
    4
 74
    0
 42
1e-07
 43
1e-07
 40
0
 40
0
 40
0
 40
0
 40
1
 40
1
 40
1
 40
1
 10
83.38875075002551
 20
-2.556125249974489
 30
0
 10
91.58458075002551
 20
-5.138345249974488
 30
0
 10
100.5832407500255
 20
-5.554855249974487
 30
0
 10
108.8812007500255
 20
-3.206485249974481
 30
0
  0
SPLINE
  5
66
100
AcDbEntity
  8
0
  6
ByLayer
 62
    7
370
   -1
100
AcDbSpline
210
0
220
0
230
0
 70
    8
 71
    3
 72
    8
 73
    4
 74
    0
 42
1e-07
 43
1e-07
 40
0
 40
0
 40
0
 40
0
 40
1
 40
1
 40
1
 40
1
 10
108.8812007500255
 20
-3.206485249974481
 30
0
 10
112.6964207500255
 20
-2.093845249974486
 30
0
 10
116.0928707500255
 20
0.5518247500255136
 30
0
 10
117.6258807500255
 20
4.283204750025515
 30
0
  0
SPLINE
  5
67
100
AcDbEntity
  8
0
  6
ByLayer
 62
    7
370
   -1
100
AcDbSpline
210
0
220
0
230
0
 70
    8
 71
    3
 72
    8
 73
    4
 74
    0
 42
1e-07
 43
1e-07
 40
0
 40
0
 40
0
 40
0
 40
1
 40
1
 40
1
 40
1
 10
117.6258807500255
 20
4.283204750025515
 30
0
 10
120.3826507500255
 20
9.885704750025514
 30
0
 10
121.1789707500255
 20
16.23344475002551
 30
0
 10
120.9440407500255
 20
22.41468475002551
 30
0
  0
LWPOLYLINE
  5
68
100
AcDbEntity
  8
0
  6
ByLayer
 62
    7
370
   -1
100
AcDbPolyline
 90
    1
 70
    1
 43
0
 10
120.9440407500255
 20
22.41468475002551
  0
SPLINE
  5
69
100
AcDbEntity
  8
0
  6
ByLayer
 62
    7
370
   -1
100
AcDbSpline
210
0
220
0
230
0
 70
    8
 71
    3
 72
    8
 73
    4
 74
    0
 42
1e-07
 43
1e-07
 40
0
 40
0
 40
0
 40
0
 40
1
 40
1
 40
1
 40
1
 10
124.8984349298156
 20
23.5009675225383
 30
0
 10
124.8687649298156
 20
28.14570252253829
 30
0
 10
122.1880114298156
 20
32.81605952253829
 30
0
 10
117.7523464298156
 20
34.53608002253829
 30
0
  0
SPLINE
  5
6A
100
AcDbEntity
  8
0
  6
ByLayer
 62
    7
370
   -1
100
AcDbSpline
210
0
220
0
230
0
 70
    8
 71
    3
 72
    8
 73
    4
 74
    0
 42
1e-07
 43
1e-07
 40
0
 40
0
 40
0
 40
0
 40
1
 40
1
 40
1
 40
1
 10
117.7523464298156
 20
34.53608002253829
 30
0
 10
112.9501879298156
 20
36.54721152253829
 30
0
 10
107.7205399298156
 20
37.36108952253827
 30
0
 10
102.5726684298156
 20
37.90423452253829
 30
0
  0
SPLINE
  5
6B
100
AcDbEntity
  8
0
  6
ByLayer
 62
    7
370
   -1
100
AcDbSpline
210
0
220
0
230
0
 70
    8
 71
    3
 72
    8
 73
    4
 74
    0
 42
1e-07
 43
1e-07
 40
0
 40
0
 40
0
 40
0
 40
1
 40
1
 40
1
 40
1
 10
102.5726684298156
 20
37.90423452253829
 30
0
 10
92.68692342981561
 20
38.85787202253829
 30
0
 10
82.4805584298156
 20
37.97518952253829
 30
0
 10
73.1719754298156
 20
34.37390702253829
 30
0
  0
SPLINE
  5
6C
100
AcDbEntity
  8
0
  6
ByLayer
 62
    7
370
   -1
100
AcDbSpline
210
0
220
0
230
0
 70
    8
 71
    3
 72
    8
 73
    4
 74
    0
 42
1e-07
 43
1e-07
 40
0
 40
0
 40
0
 40
0
 40
1
 40
1
 40
1
 40
1
 10
69.0248109298156
 20
6.807556022538293
 30
0
 10
71.4281269298156
 20
1.356521522538294
 30
0
 10
75.69762842981561
 20
-3.76159947746171
 30
0
 10
81.7098514298156
 20
-5.215463977461701
 30
0
  0
SPLINE
  5
6D
100
AcDbEntity
  8
0
  6
ByLayer
 62
    7
370
   -1
100
AcDbSpline
210
0
220
0
230
0
 70
    8
 71
    3
 72
    8
 73
    4
 74
    0
 42
1e-07
 43
1e-07
 40
0
 40
0
 40
0
 40
0
 40
1
 40
1
 40
1
 40
1
 10
81.7098514298156
 20
-5.215463977461701
 30
0
 10
91.13505592981559
 20
-8.185016977461702
 30
0
 10
101.4835149298156
 20
-8.664003477461703
 30
0
 10
111.0261689298156
 20
-5.963377977461702
 30
0
  0
SPLINE
  5
6E
100
AcDbEntity
  8
0
  6
ByLayer
 62
    7
370
   -1
100
AcDbSpline
210
0
220
0
230
0
 70
    8
 71
    3
 72
    8
 73
    4
 74
    0
 42
1e-07
 43
1e-07
 40
0
 40
0
 40
0
 40
0
 40
1
 40
1
 40
1
 40
1
 10
111.0261689298156
 20
-5.963377977461702
 30
0
 10
115.4136719298156
 20
-4.683841977461702
 30
0
 10
119.3195894298156
 20
-1.641321477461693
 30
0
 10
121.0825509298156
 20
2.649765522538297
 30
0
  0
SPLINE
  5
6F
100
AcDbEntity
  8
0
  6
ByLayer
 62
    7
370
   -1
100
AcDbSpline
210
0
220
0
230
0
 70
    8
 71
    3
 72
    8
 73
    4
 74
    0
 42
1e-07
 43
1e-07
 40
0
 40
0
 40
0
 40
0
 40
1
 40
1
 40
1
 40
1
 10
121.0825509298156
 20
2.649765522538297
 30
0
 10
124.2528364298156
 20
9.092640522538293
 30
0
 10
125.1686044298156
 20
16.39254152253829
 30
0
 10
124.8984349298156
 20
23.5009675225383
 30
0
  0
LWPOLYLINE
  5
70
100
AcDbEntity
  8
0
  6
ByLayer
 62
    7
370
   -1
100
AcDbPolyline
 90
    1
 70
    1
 43
0
 10
124.8984349298156
 20
23.5009675225383
  0
LINE
  5
71
100
AcDbEntity
  8
0
  6
ByLayer
 62
  256
370
   -1
100
AcDbLine
 10
53.37998907023542
 20
29.0778125225383
 11
64.54419242981561
 21
29.0778125225383
  0
LINE
  5
72
100
AcDbEntity
  8
0
  6
ByLayer
 62
  256
370
   -1
100
AcDbLine
 10
53.37998907023542
 20
29.0778125225383
 11
64.54419242981561
 21
29.0778125225383
  0
LINE
  5
73
100
AcDbEntity
  8
0
  6
ByLayer
 62
  256
370
   -1
100
AcDbLine
 10
53.37998907023542
 20
29.0778125225383
 11
64.54419242981561
 21
29.0778125225383
  0
LINE
  5
74
100
AcDbEntity
  8
0
  6
ByLayer
 62
  256
370
   -1
100
AcDbLine
 10
44.75220607023542
 20
34.37390702253829
 11
53.37998907023542
 21
29.0778125225383
  0
LINE
  5
75
100
AcDbEntity
  8
0
  6
ByLayer
 62
  256
370
   -1
100
AcDbLine
 10
52.88950679375506
 20
23.07781252253829
 11
48.89937057023541
 21
6.807556022538293
  0
ARC
  5
76
100
AcDbEntity
  8
0
  6
ByLayer
 62
  256
370
   -1
100
AcDbCircle
 10
54.94877192081892
 20
23.07781252253829
 40
2.05926512706386
100
AcDbArc
 50
76.22066619435157
 51
180
  0
SPLINE
  5
77
100
AcDbEntity
  8
0
  6
ByLayer
 62
    7
370
   -1
100
AcDbSpline
210
0
220
0
230
0
 70
    8
 71
    3
 72
    8
 73
    4
 74
    0
 42
1e-07
 43
1e-07
 40
0
 40
0
 40
0
 40
0
 40
1
 40
1
 40
1
 40
1
 10
75.96451075002551
 20
31.86941475002551
 30
0
 10
72.98403075002551
 20
30.53675475002552
 30
0
 10
69.27193075002552
 20
29.07257475002551
 30
0
 10
68.46209075002551
 20
25.52498475002551
 30
0
  0
SPLINE
  5
78
100
AcDbEntity
  8
0
  6
ByLayer
 62
    7
370
   -1
100
AcDbSpline
210
0
220
0
230
0
 70
    8
 71
    3
 72
    8
 73
    4
 74
    0
 42
1e-07
 43
1e-07
 40
0
 40
0
 40
0
 40
0
 40
1
 40
1
 40
1
 40
1
 10
68.46209075002551
 20
25.52498475002551
 30
0
 10
67.78181075002551
 20
19.40992475002551
 30
0
 10
70.1419607500255
 20
13.47655475002551
 30
0
 10
72.35828075002551
 20
7.898674750025515
 30
0
  0
LINE
  5
79
100
AcDbEntity
  8
0
  6
ByLayer
 62
  256
370
   -1
100
AcDbLine
 10
73.1719754298156
 20
34.37390702253829
 11
64.54419242981561
 21
29.0778125225383
  0
LINE
  5
7A
100
AcDbEntity
  8
0
  6
ByLayer
 62
  256
370
   -1
100
AcDbLine
 10
65.03467470629596
 20
23.07781252253829
 11
69.0248109298156
 21
6.807556022538293
  0
ARC
  5
7B
100
AcDbEntity
  8
0
  6
ByLayer
 62
  256
370
   -1
100
AcDbCircle
 10
62.9754095792321
 20
23.07781252253829
 40
2.05926512706386
100
AcDbArc
 50
360
 51
103.7793338056485
  0
LINE
  5
7C
100
AcDbEntity
  8
0
  6
ByLayer
 62
  256
370
   -1
100
AcDbLine
 10
55.43925419729928
 20
25.07781252253829
 11
62.48492730275174
 21
25.07781252253829
  0
LINE
  5
7D
100
AcDbEntity
  8
0
  6
ByLayer
 62
    7
370
   -1
100
AcDbLine
 10
120.9440407500255
 20
22.41468475002551
 11
120.9343735992081
 21
22.80552872807258
  0
LINE
  5
7E
100
AcDbEntity
  8
0
  6
ByLayer
 62
    7
370
   -1
100
AcDbLine
 10
120.9343735992081
 20
22.80552872807258
 11
120.910470328086
 21
23.19599062226881
  0
LINE
  5
7F
100
AcDbEntity
  8
0
  6
ByLayer
 62
    7
370
   -1
100
AcDbLine
 10
120.910470328086
 20
23.19599062226881
 11
120.8724878860733
 21
23.58554924366453
  0
LINE
  5
80
100
AcDbEntity
  8
0
  6
ByLayer
 62
    7
370
   -1
100
AcDbLine
 10
120.8724878860733
 20
23.58554924366453
 11
120.8205832225843
 21
23.97368340331006
  0
LINE
  5
81
100
AcDbEntity
  8
0
  6
ByLayer
 62
    7
370
   -1
100
AcDbLine
 10
120.8205832225843
 20
23.97368340331006
 11
120.7549132870333
 21
24.35987191225571
  0
LINE
  5
82
100
AcDbEntity
  8
0
  6
ByLayer
 62
    7
370
   -1
100
AcDbLine
 10
120.7549132870333
 20
24.35987191225571
 11
120.6756350288346
 21
24.74359358155181
  0
LINE
  5
83
100
AcDbEntity
  8
0
  6
ByLayer
 62
    7
370
   -1
100
AcDbLine
 10
120.6756350288346
 20
24.74359358155181
 11
120.5829053974022
 21
25.12432722224866
  0
LINE
  5
84
100
AcDbEntity
  8
0
  6
ByLayer
 62
    7
370
   -1
100
AcDbLine
 10
120.5829053974022
 20
25.12432722224866
 11
120.4768813421506
 21
25.5015516453966
  0
LINE
  5
85
100
AcDbEntity
  8
0
  6
ByLayer
 62
    7
370
   -1
100
AcDbLine
 10
120.4768813421506
 20
25.5015516453966
 11
120.357719812494
 21
25.87474566204591
  0
LINE
  5
86
100
AcDbEntity
  8
0
  6
ByLayer
 62
    7
370
   -1
100
AcDbLine
 10
120.357719812494
 20
25.87474566204591
 11
120.2255777578466
 21
26.24338808324695
  0
LINE
  5
87
100
AcDbEntity
  8
0
  6
ByLayer
 62
    7
370
   -1
100
AcDbLine
 10
120.2255777578466
 20
26.24338808324695
 11
120.0806121276228
 21
26.60695772005002
  0
LINE
  5
88
100
AcDbEntity
  8
0
  6
ByLayer
 62
    7
370
   -1
100
AcDbLine
 10
120.0806121276228
 20
26.60695772005002
 11
119.9229798712366
 21
26.96493338350542
  0
LINE
  5
89
100
AcDbEntity
  8
0
  6
ByLayer
 62
    7
370
   -1
100
AcDbLine
 10
119.9229798712366
 20
26.96493338350542
 11
119.7528379381024
 21
27.31679388466348
  0
LINE
  5
8A
100
AcDbEntity
  8
0
  6
ByLayer
 62
    7
370
   -1
100
AcDbLine
 10
119.7528379381024
 20
27.31679388466348
 11
119.5703432776345
 21
27.66201803457453
  0
LINE
  5
8B
100
AcDbEntity
  8
0
  6
ByLayer
 62
    7
370
   -1
100
AcDbLine
 10
119.5703432776345
 20
27.66201803457453
 11
119.3756528392471
 21
28.00008464428888
  0
LINE
  5
8C
100
AcDbEntity
  8
0
  6
ByLayer
 62
    7
370
   -1
100
AcDbLine
 10
119.3756528392471
 20
28.00008464428888
 11
119.1689235723544
 21
28.33047252485683
  0
LINE
  5
8D
100
AcDbEntity
  8
0
  6
ByLayer
 62
    7
370
   -1
100
AcDbLine
 10
119.1689235723544
 20
28.33047252485683
 11
118.9503124263707
 21
28.65266048732872
  0
LINE
  5
8E
100
AcDbEntity
  8
0
  6
ByLayer
 62
    7
370
   -1
100
AcDbLine
 10
118.9503124263707
 20
28.65266048732872
 11
118.7199763507103
 21
28.96612734275486
  0
LINE
  5
8F
100
AcDbEntity
  8
0
  6
ByLayer
 62
    7
370
   -1
100
AcDbLine
 10
118.7199763507103
 20
28.96612734275486
 11
118.4780722947873
 21
29.27035190218555
  0
LINE
  5
90
100
AcDbEntity
  8
0
  6
ByLayer
 62
    7
370
   -1
100
AcDbLine
 10
118.4780722947873
 20
29.27035190218555
 11
118.2247572080162
 21
29.56481297667113
  0
LINE
  5
91
100
AcDbEntity
  8
0
  6
ByLayer
 62
    7
370
   -1
100
AcDbLine
 10
118.2247572080162
 20
29.56481297667113
 11
117.960188039811
 21
29.84898937726192
  0
LINE
  5
92
100
AcDbEntity
  8
0
  6
ByLayer
 62
    7
370
   -1
100
AcDbLine
 10
117.960188039811
 20
29.84898937726192
 11
117.6845217395861
 21
30.12235991500822
  0
LINE
  5
93
100
AcDbEntity
  8
0
  6
ByLayer
 62
    7
370
   -1
100
AcDbLine
 10
117.6845217395861
 20
30.12235991500822
 11
117.3979152567557
 21
30.38440340096035
  0
LINE
  5
94
100
AcDbEntity
  8
0
  6
ByLayer
 62
    7
370
   -1
100
AcDbLine
 10
117.3979152567557
 20
30.38440340096035
 11
117.1005255407341
 21
30.63459864616864
  0
LINE
  5
95
100
AcDbEntity
  8
0
  6
ByLayer
 62
    7
370
   -1
100
AcDbLine
 10
117.1005255407341
 20
30.63459864616864
 11
116.7925095409355
 21
30.87242446168339
  0
LINE
  5
96
100
AcDbEntity
  8
0
  6
ByLayer
 62
    7
370
   -1
100
AcDbLine
 10
116.7925095409355
 20
30.87242446168339
 11
116.4740242067742
 21
31.09735965855493
  0
LINE
  5
97
100
AcDbEntity
  8
0
  6
ByLayer
 62
    7
370
   -1
100
AcDbLine
 10
116.4740242067742
 20
31.09735965855493
 11
116.1452264876644
 21
31.30888304783357
  0
LINE
  5
98
100
AcDbEntity
  8
0
  6
ByLayer
 62
    7
370
   -1
100
AcDbLine
 10
116.1452264876644
 20
31.30888304783357
 11
115.8062733330204
 21
31.50647344056963
  0
LINE
  5
99
100
AcDbEntity
  8
0
  6
ByLayer
 62
    7
370
   -1
100
AcDbLine
 10
115.8062733330204
 20
31.50647344056963
 11
115.4573216922564
 21
31.68960964781343
  0
LINE
  5
9A
100
AcDbEntity
  8
0
  6
ByLayer
 62
    7
370
   -1
100
AcDbLine
 10
115.4573216922564
 20
31.68960964781343
 11
115.0985285147867
 21
31.85777048061528
  0
LINE
  5
9B
100
AcDbEntity
  8
0
  6
ByLayer
 62
    7
370
   -1
100
AcDbLine
 10
115.0985285147867
 20
31.85777048061528
 11
114.7300507500255
 21
32.01043475002551
  0
LINE
  5
9C
100
AcDbEntity
  8
0
  6
ByLayer
 62
    7
370
   -1
100
AcDbLine
 10
114.7300507500255
 20
32.01043475002551
 11
114.3247964577896
 21
32.17645145070693
  0
LINE
  5
9D
100
AcDbEntity
  8
0
  6
ByLayer
 62
    7
370
   -1
100
AcDbLine
 10
114.3247964577896
 20
32.17645145070693
 11
113.917310460005
 21
32.33613037420731
  0
LINE
  5
9E
100
AcDbEntity
  8
0
  6
ByLayer
 62
    7
370
   -1
100
AcDbLine
 10
113.917310460005
 20
32.33613037420731
 11
113.5076819460243
 21
32.48963378496896
  0
LINE
  5
9F
100
AcDbEntity
  8
0
  6
ByLayer
 62
    7
370
   -1
100
AcDbLine
 10
113.5076819460243
 20
32.48963378496896
 11
113.0960001051999
 21
32.63712394743413
  0
LINE
  5
A0
100
AcDbEntity
  8
0
  6
ByLayer
 62
    7
370
   -1
100
AcDbLine
 10
113.0960001051999
 20
32.63712394743413
 11
112.6823541268843
 21
32.77876312604511
  0
LINE
  5
A1
100
AcDbEntity
  8
0
  6
ByLayer
 62
    7
370
   -1
100
AcDbLine
 10
112.6823541268843
 20
32.77876312604511
 11
112.26683320043
 21
32.91471358524421
  0
LINE
  5
A2
100
AcDbEntity
  8
0
  6
ByLayer
 62
    7
370
   -1
100
AcDbLine
 10
112.26683320043
 20
32.91471358524421
 11
111.8495265151895
 21
33.04513758947368
  0
LINE
  5
A3
100
AcDbEntity
  8
0
  6
ByLayer
 62
    7
370
   -1
100
AcDbLine
 10
111.8495265151895
 20
33.04513758947368
 11
111.4305232605153
 21
33.17019740317579
  0
LINE
  5
A4
100
AcDbEntity
  8
0
  6
ByLayer
 62
    7
370
   -1
100
AcDbLine
 10
111.4305232605153
 20
33.17019740317579
 11
111.0099126257598
 21
33.29005529079286
  0
LINE
  5
A5
100
AcDbEntity
  8
0
  6
ByLayer
 62
    7
370
   -1
100
AcDbLine
 10
111.0099126257598
 20
33.29005529079286
 11
110.5877838002756
 21
33.40487351676715
  0
LINE
  5
A6
100
AcDbEntity
  8
0
  6
ByLayer
 62
    7
370
   -1
100
AcDbLine
 10
110.5877838002756
 20
33.40487351676715
 11
110.1642259734151
 21
33.51481434554094
  0
LINE
  5
A7
100
AcDbEntity
  8
0
  6
ByLayer
 62
    7
370
   -1
100
AcDbLine
 10
110.1642259734151
 20
33.51481434554094
 11
109.7393283345309
 21
33.62004004155651
  0
LINE
  5
A8
100
AcDbEntity
  8
0
  6
ByLayer
 62
    7
370
   -1
100
AcDbLine
 10
109.7393283345309
 20
33.62004004155651
 11
109.3131800729754
 21
33.72071286925615
  0
LINE
  5
A9
100
AcDbEntity
  8
0
  6
ByLayer
 62
    7
370
   -1
100
AcDbLine
 10
109.3131800729754
 20
33.72071286925615
 11
108.8858703781011
 21
33.81699509308215
  0
LINE
  5
AA
100
AcDbEntity
  8
0
  6
ByLayer
 62
    7
370
   -1
100
AcDbLine
 10
108.8858703781011
 20
33.81699509308215
 11
108.4574884392605
 21
33.90904897747676
  0
LINE
  5
AB
100
AcDbEntity
  8
0
  6
ByLayer
 62
    7
370
   -1
100
AcDbLine
 10
108.4574884392605
 20
33.90904897747676
 11
108.0281234458061
 21
33.99703678688228
  0
LINE
  5
AC
100
AcDbEntity
  8
0
  6
ByLayer
 62
    7
370
   -1
100
AcDbLine
 10
108.0281234458061
 20
33.99703678688228
 11
107.5978645870904
 21
34.081120785741
  0
LINE
  5
AD
100
AcDbEntity
  8
0
  6
ByLayer
 62
    7
370
   -1
100
AcDbLine
 10
107.5978645870904
 20
34.081120785741
 11
107.1668010524658
 21
34.16146323849519
  0
LINE
  5
AE
100
AcDbEntity
  8
0
  6
ByLayer
 62
    7
370
   -1
100
AcDbLine
 10
107.1668010524658
 20
34.16146323849519
 11
106.735022031285
 21
34.23822640958713
  0
LINE
  5
AF
100
AcDbEntity
  8
0
  6
ByLayer
 62
    7
370
   -1
100
AcDbLine
 10
106.735022031285
 20
34.23822640958713
 11
106.3026167129002
 21
34.3115725634591
  0
LINE
  5
B0
100
AcDbEntity
  8
0
  6
ByLayer
 62
    7
370
   -1
100
AcDbLine
 10
106.3026167129002
 20
34.3115725634591
 11
105.8696742866641
 21
34.3816639645534
  0
LINE
  5
B1
100
AcDbEntity
  8
0
  6
ByLayer
 62
    7
370
   -1
100
AcDbLine
 10
105.8696742866641
 20
34.3816639645534
 11
105.4362839419291
 21
34.44866287731228
  0
LINE
  5
B2
100
AcDbEntity
  8
0
  6
ByLayer
 62
    7
370
   -1
100
AcDbLine
 10
105.4362839419291
 20
34.44866287731228
 11
105.0025348680477
 21
34.51273156617805
  0
LINE
  5
B3
100
AcDbEntity
  8
0
  6
ByLayer
 62
    7
370
   -1
100
AcDbLine
 10
105.0025348680477
 20
34.51273156617805
 11
104.5685162543725
 21
34.57403229559297
  0
LINE
  5
B4
100
AcDbEntity
  8
0
  6
ByLayer
 62
    7
370
   -1
100
AcDbLine
 10
104.5685162543725
 20
34.57403229559297
 11
104.1343172902558
 21
34.63272732999933
  0
LINE
  5
B5
100
AcDbEntity
  8
0
  6
ByLayer
 62
    7
370
   -1
100
AcDbLine
 10
104.1343172902558
 20
34.63272732999933
 11
103.7000271650502
 21
34.68897893383942
  0
LINE
  5
B6
100
AcDbEntity
  8
0
  6
ByLayer
 62
    7
370
   -1
100
AcDbLine
 10
103.7000271650502
 20
34.68897893383942
 11
103.2657350681082
 21
34.74294937155551
  0
LINE
  5
B7
100
AcDbEntity
  8
0
  6
ByLayer
 62
    7
370
   -1
100
AcDbLine
 10
103.2657350681082
 20
34.74294937155551
 11
102.8315301887822
 21
34.79480090758989
  0
LINE
  5
B8
100
AcDbEntity
  8
0
  6
ByLayer
 62
    7
370
   -1
100
AcDbLine
 10
102.8315301887822
 20
34.79480090758989
 11
102.3975017164247
 21
34.84469580638482
  0
LINE
  5
B9
100
AcDbEntity
  8
0
  6
ByLayer
 62
    7
370
   -1
100
AcDbLine
 10
102.3975017164247
 20
34.84469580638482
 11
101.9637388403884
 21
34.89279633238261
  0
LINE
  5
BA
100
AcDbEntity
  8
0
  6
ByLayer
 62
    7
370
   -1
100
AcDbLine
 10
101.9637388403884
 20
34.89279633238261
 11
101.5303307500255
 21
34.93926475002552
  0
LINE
  5
BB
100
AcDbEntity
  8
0
  6
ByLayer
 62
    7
370
   -1
100
AcDbLine
 10
101.5303307500255
 20
34.93926475002552
 11
100.6975959703941
 21
35.01450418978921
  0
LINE
  5
BC
100
AcDbEntity
  8
0
  6
ByLayer
 62
    7
370
   -1
100
AcDbLine
 10
100.6975959703941
 20
35.01450418978921
 11
99.86333388654326
 21
35.0796194981038
  0
LINE
  5
BD
100
AcDbEntity
  8
0
  6
ByLayer
 62
    7
370
   -1
100
AcDbLine
 10
99.86333388654326
 20
35.0796194981038
 11
99.02775788103823
 21
35.13445615850459
  0
LINE
  5
BE
100
AcDbEntity
  8
0
  6
ByLayer
 62
    7
370
   -1
100
AcDbLine
 10
99.02775788103823
 20
35.13445615850459
 11
98.19108133644423
 21
35.17885965452688
  0
LINE
  5
BF
100
AcDbEntity
  8
0
  6
ByLayer
 62
    7
370
   -1
100
AcDbLine
 10
98.19108133644423
 20
35.17885965452688
 11
97.35351763532643
 21
35.21267546970595
  0
LINE
  5
C0
100
AcDbEntity
  8
0
  6
ByLayer
 62
    7
370
   -1
100
AcDbLine
 10
97.35351763532643
 20
35.21267546970595
 11
96.51528016025007
 21
35.23574908757713
  0
LINE
  5
C1
100
AcDbEntity
  8
0
  6
ByLayer
 62
    7
370
   -1
100
AcDbLine
 10
96.51528016025007
 20
35.23574908757713
 11
95.67658229378033
 21
35.24792599167568
  0
LINE
  5
C2
100
AcDbEntity
  8
0
  6
ByLayer
 62
    7
370
   -1
100
AcDbLine
 10
95.67658229378033
 20
35.24792599167568
 11
94.83763741848243
 21
35.24905166553691
  0
LINE
  5
C3
100
AcDbEntity
  8
0
  6
ByLayer
 62
    7
370
   -1
100
AcDbLine
 10
94.83763741848243
 20
35.24905166553691
 11
93.99865891692154
 21
35.23897159269611
  0
LINE
  5
C4
100
AcDbEntity
  8
0
  6
ByLayer
 62
    7
370
   -1
100
AcDbLine
 10
93.99865891692154
 20
35.23897159269611
 11
93.15986017166291
 21
35.21753125668859
  0
LINE
  5
C5
100
AcDbEntity
  8
0
  6
ByLayer
 62
    7
370
   -1
100
AcDbLine
 10
93.15986017166291
 20
35.21753125668859
 11
92.32145456527172
 21
35.18457614104965
  0
LINE
  5
C6
100
AcDbEntity
  8
0
  6
ByLayer
 62
    7
370
   -1
100
AcDbLine
 10
92.32145456527172
 20
35.18457614104965
 11
91.48365548031317
 21
35.13995172931456
  0
LINE
  5
C7
100
AcDbEntity
  8
0
  6
ByLayer
 62
    7
370
   -1
100
AcDbLine
 10
91.48365548031317
 20
35.13995172931456
 11
90.64667629935249
 21
35.08350350501863
  0
LINE
  5
C8
100
AcDbEntity
  8
0
  6
ByLayer
 62
    7
370
   -1
100
AcDbLine
 10
90.64667629935249
 20
35.08350350501863
 11
89.81073040495485
 21
35.01507695169716
  0
LINE
  5
C9
100
AcDbEntity
  8
0
  6
ByLayer
 62
    7
370
   -1
100
AcDbLine
 10
89.81073040495485
 20
35.01507695169716
 11
88.97603117968548
 21
34.93451755288543
  0
LINE
  5
CA
100
AcDbEntity
  8
0
  6
ByLayer
 62
    7
370
   -1
100
AcDbLine
 10
88.97603117968548
 20
34.93451755288543
 11
88.14279200610957
 21
34.84167079211876
  0
LINE
  5
CB
100
AcDbEntity
  8
0
  6
ByLayer
 62
    7
370
   -1
100
AcDbLine
 10
88.14279200610957
 20
34.84167079211876
 11
87.31122626679233
 21
34.73638215293243
  0
LINE
  5
CC
100
AcDbEntity
  8
0
  6
ByLayer
 62
    7
370
   -1
100
AcDbLine
 10
87.31122626679233
 20
34.73638215293243
 11
86.48154734429897
 21
34.61849711886174
  0
LINE
  5
CD
100
AcDbEntity
  8
0
  6
ByLayer
 62
    7
370
   -1
100
AcDbLine
 10
86.48154734429897
 20
34.61849711886174
 11
85.65396862119466
 21
34.48786117344198
  0
LINE
  5
CE
100
AcDbEntity
  8
0
  6
ByLayer
 62
    7
370
   -1
100
AcDbLine
 10
85.65396862119466
 20
34.48786117344198
 11
84.82870348004464
 21
34.34431980020845
  0
LINE
  5
CF
100
AcDbEntity
  8
0
  6
ByLayer
 62
    7
370
   -1
100
AcDbLine
 10
84.82870348004464
 20
34.34431980020845
 11
84.00596530341413
 21
34.18771848269645
  0
LINE
  5
D0
100
AcDbEntity
  8
0
  6
ByLayer
 62
    7
370
   -1
100
AcDbLine
 10
84.00596530341413
 20
34.18771848269645
 11
83.18596747386829
 21
34.01790270444128
  0
LINE
  5
D1
100
AcDbEntity
  8
0
  6
ByLayer
 62
    7
370
   -1
100
AcDbLine
 10
83.18596747386829
 20
34.01790270444128
 11
82.36892337397235
 21
33.83471794897822
  0
LINE
  5
D2
100
AcDbEntity
  8
0
  6
ByLayer
 62
    7
370
   -1
100
AcDbLine
 10
82.36892337397235
 20
33.83471794897822
 11
81.55504638629151
 21
33.63800969984257
  0
LINE
  5
D3
100
AcDbEntity
  8
0
  6
ByLayer
 62
    7
370
   -1
100
AcDbLine
 10
81.55504638629151
 20
33.63800969984257
 11
80.74454989339097
 21
33.42762344056963
  0
LINE
  5
D4
100
AcDbEntity
  8
0
  6
ByLayer
 62
    7
370
   -1
100
AcDbLine
 10
80.74454989339097
 20
33.42762344056963
 11
79.93764727783594
 21
33.20340465469471
  0
LINE
  5
D5
100
AcDbEntity
  8
0
  6
ByLayer
 62
    7
370
   -1
100
AcDbLine
 10
79.93764727783594
 20
33.20340465469471
 11
79.13455192219162
 21
32.96519882575308
  0
LINE
  5
D6
100
AcDbEntity
  8
0
  6
ByLayer
 62
    7
370
   -1
100
AcDbLine
 10
79.13455192219162
 20
32.96519882575308
 11
78.33547720902321
 21
32.71285143728005
  0
LINE
  5
D7
100
AcDbEntity
  8
0
  6
ByLayer
 62
    7
370
   -1
100
AcDbLine
 10
78.33547720902321
 20
32.71285143728005
 11
77.54063652089592
 21
32.44620797281092
  0
LINE
  5
D8
100
AcDbEntity
  8
0
  6
ByLayer
 62
    7
370
   -1
100
AcDbLine
 10
77.54063652089592
 20
32.44620797281092
 11
76.75024324037496
 21
32.16511391588097
  0
LINE
  5
D9
100
AcDbEntity
  8
0
  6
ByLayer
 62
    7
370
   -1
100
AcDbLine
 10
76.75024324037496
 20
32.16511391588097
 11
75.96451075002551
 21
31.86941475002551
  0
LINE
  5
DA
100
AcDbEntity
  8
0
  6
ByLayer
 62
    7
370
   -1
100
AcDbLine
 10
75.96451075002551
 20
31.86941475002551
 11
75.67391524735694
 21
31.73997156147864
  0
LINE
  5
DB
100
AcDbEntity
  8
0
  6
ByLayer
 62
    7
370
   -1
100
AcDbLine
 10
75.67391524735694
 20
31.73997156147864
 11
75.37948375261018
 21
31.60931411157767
  0
LINE
  5
DC
100
AcDbEntity
  8
0
  6
ByLayer
 62
    7
370
   -1
100
AcDbLine
 10
75.37948375261018
 20
31.60931411157767
 11
75.08194814051258
 21
31.47704928360949
  0
LINE
  5
DD
100
AcDbEntity
  8
0
  6
ByLayer
 62
    7
370
   -1
100
AcDbLine
 10
75.08194814051258
 20
31.47704928360949
 11
74.78204028579135
 21
31.342783960861
  0
LINE
  5
DE
100
AcDbEntity
  8
0
  6
ByLayer
 62
    7
370
   -1
100
AcDbLine
 10
74.78204028579135
 20
31.342783960861
 11
74.48049206317378
 21
31.20612502661912
  0
LINE
  5
DF
100
AcDbEntity
  8
0
  6
ByLayer
 62
    7
370
   -1
100
AcDbLine
 10
74.48049206317378
 20
31.20612502661912
 11
74.17803534738714
 21
31.06667936417073
  0
LINE
  5
E0
100
AcDbEntity
  8
0
  6
ByLayer
 62
    7
370
   -1
100
AcDbLine
 10
74.17803534738714
 20
31.06667936417073
 11
73.87540201315868
 21
30.92405385680273
  0
LINE
  5
E1
100
AcDbEntity
  8
0
  6
ByLayer
 62
    7
370
   -1
100
AcDbLine
 10
73.87540201315868
 20
30.92405385680273
 11
73.57332393521568
 21
30.77785538780202
  0
LINE
  5
E2
100
AcDbEntity
  8
0
  6
ByLayer
 62
    7
370
   -1
100
AcDbLine
 10
73.57332393521568
 20
30.77785538780202
 11
73.27253298828539
 21
30.62769084045551
  0
LINE
  5
E3
100
AcDbEntity
  8
0
  6
ByLayer
 62
    7
370
   -1
100
AcDbLine
 10
73.27253298828539
 20
30.62769084045551
 11
72.97376104709508
 21
30.47316709805008
  0
LINE
  5
E4
100
AcDbEntity
  8
0
  6
ByLayer
 62
    7
370
   -1
100
AcDbLine
 10
72.97376104709508
 20
30.47316709805008
 11
72.67773998637205
 21
30.31389104387265
  0
LINE
  5
E5
100
AcDbEntity
  8
0
  6
ByLayer
 62
    7
370
   -1
100
AcDbLine
 10
72.67773998637205
 20
30.31389104387265
 11
72.38520168084355
 21
30.1494695612101
  0
LINE
  5
E6
100
AcDbEntity
  8
0
  6
ByLayer
 62
    7
370
   -1
100
AcDbLine
 10
72.38520168084355
 20
30.1494695612101
 11
72.09687800523682
 21
29.97950953334934
  0
LINE
  5
E7
100
AcDbEntity
  8
0
  6
ByLayer
 62
    7
370
   -1
100
AcDbLine
 10
72.09687800523682
 20
29.97950953334934
 11
71.81350083427915
 21
29.80361784357726
  0
LINE
  5
E8
100
AcDbEntity
  8
0
  6
ByLayer
 62
    7
370
   -1
100
AcDbLine
 10
71.81350083427915
 20
29.80361784357726
 11
71.5358020426978
 21
29.62140137518077
  0
LINE
  5
E9
100
AcDbEntity
  8
0
  6
ByLayer
 62
    7
370
   -1
100
AcDbLine
 10
71.5358020426978
 20
29.62140137518077
 11
71.26451350522004
 21
29.43246701144675
  0
LINE
  5
EA
100
AcDbEntity
  8
0
  6
ByLayer
 62
    7
370
   -1
100
AcDbLine
 10
71.26451350522004
 20
29.43246701144675
 11
71.00036709657313
 21
29.23642163566212
  0
LINE
  5
EB
100
AcDbEntity
  8
0
  6
ByLayer
 62
    7
370
   -1
100
AcDbLine
 10
71.00036709657313
 20
29.23642163566212
 11
70.74409469148435
 21
29.03287213111376
  0
LINE
  5
EC
100
AcDbEntity
  8
0
  6
ByLayer
 62
    7
370
   -1
100
AcDbLine
 10
70.74409469148435
 20
29.03287213111376
 11
70.49642816468095
 21
28.82142538108859
  0
LINE
  5
ED
100
AcDbEntity
  8
0
  6
ByLayer
 62
    7
370
   -1
100
AcDbLine
 10
70.49642816468095
 20
28.82142538108859
 11
70.25809939089021
 21
28.60168826887348
  0
LINE
  5
EE
100
AcDbEntity
  8
0
  6
ByLayer
 62
    7
370
   -1
100
AcDbLine
 10
70.25809939089021
 20
28.60168826887348
 11
70.02984024483939
 21
28.37326767775536
  0
LINE
  5
EF
100
AcDbEntity
  8
0
  6
ByLayer
 62
    7
370
   -1
100
AcDbLine
 10
70.02984024483939
 20
28.37326767775536
 11
69.81238260125576
 21
28.13577049102112
  0
LINE
  5
F0
100
AcDbEntity
  8
0
  6
ByLayer
 62
    7
370
   -1
100
AcDbLine
 10
69.81238260125576
 20
28.13577049102112
 11
69.60645833486657
 21
27.88880359195764
  0
LINE
  5
F1
100
AcDbEntity
  8
0
  6
ByLayer
 62
    7
370
   -1
100
AcDbLine
 10
69.60645833486657
 20
27.88880359195764
 11
69.41279932039912
 21
27.63197386385184
  0
LINE
  5
F2
100
AcDbEntity
  8
0
  6
ByLayer
 62
    7
370
   -1
100
AcDbLine
 10
69.41279932039912
 20
27.63197386385184
 11
69.23213743258066
 21
27.3648881899906
  0
LINE
  5
F3
100
AcDbEntity
  8
0
  6
ByLayer
 62
    7
370
   -1
100
AcDbLine
 10
69.23213743258066
 20
27.3648881899906
 11
69.06520454613843
 21
27.08715345366084
  0
LINE
  5
F4
100
AcDbEntity
  8
0
  6
ByLayer
 62
    7
370
   -1
100
AcDbLine
 10
69.06520454613843
 20
27.08715345366084
 11
68.91273253579975
 21
26.79837653814945
  0
LINE
  5
F5
100
AcDbEntity
  8
0
  6
ByLayer
 62
    7
370
   -1
100
AcDbLine
 10
68.91273253579975
 20
26.79837653814945
 11
68.77545327629184
 21
26.49816432674331
  0
LINE
  5
F6
100
AcDbEntity
  8
0
  6
ByLayer
 62
    7
370
   -1
100
AcDbLine
 10
68.77545327629184
 20
26.49816432674331
 11
68.65409864234198
 21
26.18612370272935
  0
LINE
  5
F7
100
AcDbEntity
  8
0
  6
ByLayer
 62
    7
370
   -1
100
AcDbLine
 10
68.65409864234198
 20
26.18612370272935
 11
68.54940050867745
 21
25.86186154939445
  0
LINE
  5
F8
100
AcDbEntity
  8
0
  6
ByLayer
 62
    7
370
   -1
100
AcDbLine
 10
68.54940050867745
 20
25.86186154939445
 11
68.46209075002551
 21
25.52498475002551
  0
LINE
  5
F9
100
AcDbEntity
  8
0
  6
ByLayer
 62
    7
370
   -1
100
AcDbLine
 10
68.46209075002551
 20
25.52498475002551
 11
68.40564177181062
 21
24.93377777442886
  0
LINE
  5
FA
100
AcDbEntity
  8
0
  6
ByLayer
 62
    7
370
   -1
100
AcDbLine
 10
68.40564177181062
 20
24.93377777442886
 11
68.36753438736565
 21
24.34374018354571
  0
LINE
  5
FB
100
AcDbEntity
  8
0
  6
ByLayer
 62
    7
370
   -1
100
AcDbLine
 10
68.36753438736565
 20
24.34374018354571
 11
68.34712727682891
 21
23.75490698123628
  0
LINE
  5
FC
100
AcDbEntity
  8
0
  6
ByLayer
 62
    7
370
   -1
100
AcDbLine
 10
68.34712727682891
 20
23.75490698123628
 11
68.3437791203387
 21
23.16731317136081
  0
LINE
  5
FD
100
AcDbEntity
  8
0
  6
ByLayer
 62
    7
370
   -1
100
AcDbLine
 10
68.3437791203387
 20
23.16731317136081
 11
68.3568485980333
 21
22.58099375777953
  0
LINE
  5
FE
100
AcDbEntity
  8
0
  6
ByLayer
 62
    7
370
   -1
100
AcDbLine
 10
68.3568485980333
 20
22.58099375777953
 11
68.38569439005101
 21
21.99598374435266
  0
LINE
  5
FF
100
AcDbEntity
  8
0
  6
ByLayer
 62
    7
370
   -1
100
AcDbLine
 10
68.38569439005101
 20
21.99598374435266
 11
68.42967517653015
 21
21.41231813494042
  0
LINE
  5
100
100
AcDbEntity
  8
0
  6
ByLayer
 62
    7
370
   -1
100
AcDbLine
 10
68.42967517653015
 20
21.41231813494042
 11
68.488149637609
 21
20.83003193340304
  0
LINE
  5
101
100
AcDbEntity
  8
0
  6
ByLayer
 62
    7
370
   -1
100
AcDbLine
 10
68.488149637609
 20
20.83003193340304
 11
68.56047645342585
 21
20.24916014360075
  0
LINE
  5
102
100
AcDbEntity
  8
0
  6
ByLayer
 62
    7
370
   -1
100
AcDbLine
 10
68.56047645342585
 20
20.24916014360075
 11
68.64601430411902
 21
19.66973776939377
  0
LINE
  5
103
100
AcDbEntity
  8
0
  6
ByLayer
 62
    7
370
   -1
100
AcDbLine
 10
68.64601430411902
 20
19.66973776939377
 11
68.74412186982678
 21
19.09179981464234
  0
LINE
  5
104
100
AcDbEntity
  8
0
  6
ByLayer
 62
    7
370
   -1
100
AcDbLine
 10
68.74412186982678
 20
19.09179981464234
 11
68.85415783068746
 21
18.51538128320668
  0
LINE
  5
105
100
AcDbEntity
  8
0
  6
ByLayer
 62
    7
370
   -1
100
AcDbLine
 10
68.85415783068746
 20
18.51538128320668
 11
68.97548086683931
 21
17.940517178947
  0
LINE
  5
106
100
AcDbEntity
  8
0
  6
ByLayer
 62
    7
370
   -1
100
AcDbLine
 10
68.97548086683931
 20
17.940517178947
 11
69.10744965842066
 21
17.36724250572354
  0
LINE
  5
107
100
AcDbEntity
  8
0
  6
ByLayer
 62
    7
370
   -1
100
AcDbLine
 10
69.10744965842066
 20
17.36724250572354
 11
69.2494228855698
 21
16.79559226739653
  0
LINE
  5
108
100
AcDbEntity
  8
0
  6
ByLayer
 62
    7
370
   -1
100
AcDbLine
 10
69.2494228855698
 20
16.79559226739653
 11
69.40075922842502
 21
16.22560146782619
  0
LINE
  5
109
100
AcDbEntity
  8
0
  6
ByLayer
 62
    7
370
   -1
100
AcDbLine
 10
69.40075922842502
 20
16.22560146782619
 11
69.56081736712463
 21
15.65730511087275
  0
LINE
  5
10A
100
AcDbEntity
  8
0
  6
ByLayer
 62
    7
370
   -1
100
AcDbLine
 10
69.56081736712463
 20
15.65730511087275
 11
69.72895598180692
 21
15.09073820039644
  0
LINE
  5
10B
100
AcDbEntity
  8
0
  6
ByLayer
 62
    7
370
   -1
100
AcDbLine
 10
69.72895598180692
 20
15.09073820039644
 11
69.90453375261018
 21
14.52593574025747
  0
LINE
  5
10C
100
AcDbEntity
  8
0
  6
ByLayer
 62
    7
370
   -1
100
AcDbLine
 10
69.90453375261018
 20
14.52593574025747
 11
70.08690935967272
 21
13.96293273431607
  0
LINE
  5
10D
100
AcDbEntity
  8
0
  6
ByLayer
 62
    7
370
   -1
100
AcDbLine
 10
70.08690935967272
 20
13.96293273431607
 11
70.27544148313282
 21
13.40176418643249
  0
LINE
  5
10E
100
AcDbEntity
  8
0
  6
ByLayer
 62
    7
370
   -1
100
AcDbLine
 10
70.27544148313282
 20
13.40176418643249
 11
70.4694888031288
 21
12.84246510046693
  0
LINE
  5
10F
100
AcDbEntity
  8
0
  6
ByLayer
 62
    7
370
   -1
100
AcDbLine
 10
70.4694888031288
 20
12.84246510046693
 11
70.66840999979894
 21
12.28507048027963
  0
LINE
  5
110
100
AcDbEntity
  8
0
  6
ByLayer
 62
    7
370
   -1
100
AcDbLine
 10
70.66840999979894
 20
12.28507048027963
 11
70.87156375328152
 21
11.7296153297308
  0
LINE
  5
111
100
AcDbEntity
  8
0
  6
ByLayer
 62
    7
370
   -1
100
AcDbLine
 10
70.87156375328152
 20
11.7296153297308
 11
71.07830874371487
 21
11.17613465268069
  0
LINE
  5
112
100
AcDbEntity
  8
0
  6
ByLayer
 62
    7
370
   -1
100
AcDbLine
 10
71.07830874371487
 20
11.17613465268069
 11
71.28800365123728
 21
10.62466345298951
  0
LINE
  5
113
100
AcDbEntity
  8
0
  6
ByLayer
 62
    7
370
   -1
100
AcDbLine
 10
71.28800365123728
 20
10.62466345298951
 11
71.50000715598705
 21
10.07523673451748
  0
LINE
  5
114
100
AcDbEntity
  8
0
  6
ByLayer
 62
    7
370
   -1
100
AcDbLine
 10
71.50000715598705
 20
10.07523673451748
 11
71.71367793810245
 21
9.52788950112485
  0
LINE
  5
115
100
AcDbEntity
  8
0
  6
ByLayer
 62
    7
370
   -1
100
AcDbLine
 10
71.71367793810245
 20
9.52788950112485
 11
71.92837467772179
 21
8.982656756671826
  0
LINE
  5
116
100
AcDbEntity
  8
0
  6
ByLayer
 62
    7
370
   -1
100
AcDbLine
 10
71.92837467772179
 20
8.982656756671826
 11
72.14345605498339
 21
8.439573505018643
  0
LINE
  5
117
100
AcDbEntity
  8
0
  6
ByLayer
 62
    7
370
   -1
100
AcDbLine
 10
72.14345605498339
 20
8.439573505018643
 11
72.35828075002551
 21
7.898674750025515
  0
LINE
  5
118
100
AcDbEntity
  8
0
  6
ByLayer
 62
    7
370
   -1
100
AcDbLine
 10
72.35828075002551
 20
7.898674750025515
 11
72.56558560619014
 21
7.440963122352728
  0
LINE
  5
119
100
AcDbEntity
  8
0
  6
ByLayer
 62
    7
370
   -1
100
AcDbLine
 10
72.56558560619014
 20
7.440963122352728
 11
72.78300059830184
 21
6.985642352992856
  0
LINE
  5
11A
100
AcDbEntity
  8
0
  6
ByLayer
 62
    7
370
   -1
100
AcDbLine
 10
72.78300059830184
 20
6.985642352992856
 11
73.01050410372294
 21
6.533295870498142
  0
LINE
  5
11B
100
AcDbEntity
  8
0
  6
ByLayer
 62
    7
370
   -1
100
AcDbLine
 10
73.01050410372294
 20
6.533295870498142
 11
73.24807449981573
 21
6.084507103420836
  0
LINE
  5
11C
100
AcDbEntity
  8
0
  6
ByLayer
 62
    7
370
   -1
100
AcDbLine
 10
73.24807449981573
 20
6.084507103420836
 11
73.49569016394246
 21
5.639859480313185
  0
LINE
  5
11D
100
AcDbEntity
  8
0
  6
ByLayer
 62
    7
370
   -1
100
AcDbLine
 10
73.49569016394246
 20
5.639859480313185
 11
73.75332947346548
 21
5.19993642972744
  0
LINE
  5
11E
100
AcDbEntity
  8
0
  6
ByLayer
 62
    7
370
   -1
100
AcDbLine
 10
73.75332947346548
 20
5.19993642972744
 11
74.02097080574703
 21
4.765321380215842
  0
LINE
  5
11F
100
AcDbEntity
  8
0
  6
ByLayer
 62
    7
370
   -1
100
AcDbLine
 10
74.02097080574703
 20
4.765321380215842
 11
74.29859253814945
 21
4.336597760330642
  0
LINE
  5
120
100
AcDbEntity
  8
0
  6
ByLayer
 62
    7
370
   -1
100
AcDbLine
 10
74.29859253814945
 20
4.336597760330642
 11
74.58617304803498
 21
3.914348998624086
  0
LINE
  5
121
100
AcDbEntity
  8
0
  6
ByLayer
 62
    7
370
   -1
100
AcDbLine
 10
74.58617304803498
 20
3.914348998624086
 11
74.88369071276593
 21
3.499158523648423
  0
LINE
  5
122
100
AcDbEntity
  8
0
  6
ByLayer
 62
    7
370
   -1
100
AcDbLine
 10
74.88369071276593
 20
3.499158523648423
 11
75.19112390970461
 21
3.091609763955899
  0
LINE
  5
123
100
AcDbEntity
  8
0
  6
ByLayer
 62
    7
370
   -1
100
AcDbLine
 10
75.19112390970461
 20
3.091609763955899
 11
75.50845101621329
 21
2.692286148098762
  0
LINE
  5
124
100
AcDbEntity
  8
0
  6
ByLayer
 62
    7
370
   -1
100
AcDbLine
 10
75.50845101621329
 20
2.692286148098762
 11
75.83565040965426
 21
2.301771104629258
  0
LINE
  5
125
100
AcDbEntity
  8
0
  6
ByLayer
 62
    7
370
   -1
100
AcDbLine
 10
75.83565040965426
 20
2.301771104629258
 11
76.17270046738982
 21
1.920648062099636
  0
LINE
  5
126
100
AcDbEntity
  8
0
  6
ByLayer
 62
    7
370
   -1
100
AcDbLine
 10
76.17270046738982
 20
1.920648062099636
 11
76.51957956678224
 21
1.549500449062141
  0
LINE
  5
127
100
AcDbEntity
  8
0
  6
ByLayer
 62
    7
370
   -1
100
AcDbLine
 10
76.51957956678224
 20
1.549500449062141
 11
76.87626608519386
 21
1.188911694069023
  0
LINE
  5
128
100
AcDbEntity
  8
0
  6
ByLayer
 62
    7
370
   -1
100
AcDbLine
 10
76.87626608519386
 20
1.188911694069023
 11
77.24273839998691
 21
0.839465225672527
  0
LINE
  5
129
100
AcDbEntity
  8
0
  6
ByLayer
 62
    7
370
   -1
100
AcDbLine
 10
77.24273839998691
 20
0.839465225672527
 11
77.61897488852372
 21
0.5017444724249022
  0
LINE
  5
12A
100
AcDbEntity
  8
0
  6
ByLayer
 62
    7
370
   -1
100
AcDbLine
 10
77.61897488852372
 20
0.5017444724249022
 11
78.00495392816656
 21
0.1763328628783947
  0
LINE
  5
12B
100
AcDbEntity
  8
0
  6
ByLayer
 62
    7
370
   -1
100
AcDbLine
 10
78.00495392816656
 20
0.1763328628783947
 11
78.40065389627773
 21
-0.1361861744147475
  0
LINE
  5
12C
100
AcDbEntity
  8
0
  6
ByLayer
 62
    7
370
   -1
100
AcDbLine
 10
78.40065389627773
 20
-0.1361861744147475
 11
78.80605317021953
 21
-0.4352292109022773
  0
LINE
  5
12D
100
AcDbEntity
  8
0
  6
ByLayer
 62
    7
370
   -1
100
AcDbLine
 10
78.80605317021953
 20
-0.4352292109022773
 11
79.22113012735424
 21
-0.7202128180319475
  0
LINE
  5
12E
100
AcDbEntity
  8
0
  6
ByLayer
 62
    7
370
   -1
100
AcDbLine
 10
79.22113012735424
 20
-0.7202128180319475
 11
79.64586314504413
 21
-0.9905535672515109
  0
LINE
  5
12F
100
AcDbEntity
  8
0
  6
ByLayer
 62
    7
370
   -1
100
AcDbLine
 10
79.64586314504413
 20
-0.9905535672515109
 11
80.08023060065153
 21
-1.24566803000872
  0
LINE
  5
130
100
AcDbEntity
  8
0
  6
ByLayer
 62
    7
370
   -1
100
AcDbLine
 10
80.08023060065153
 20
-1.24566803000872
 11
80.52421087153871
 21
-1.484972777751327
  0
LINE
  5
131
100
AcDbEntity
  8
0
  6
ByLayer
 62
    7
370
   -1
100
AcDbLine
 10
80.52421087153871
 20
-1.484972777751327
 11
80.97778233506796
 21
-1.707884381927085
  0
LINE
  5
132
100
AcDbEntity
  8
0
  6
ByLayer
 62
    7
370
   -1
100
AcDbLine
 10
80.97778233506796
 20
-1.707884381927085
 11
81.44092336860159
 21
-1.913819413983747
  0
LINE
  5
133
100
AcDbEntity
  8
0
  6
ByLayer
 62
    7
370
   -1
100
AcDbLine
 10
81.44092336860159
 20
-1.913819413983747
 11
81.91361234950186
 21
-2.102194445369066
  0
LINE
  5
134
100
AcDbEntity
  8
0
  6
ByLayer
 62
    7
370
   -1
100
AcDbLine
 10
81.91361234950186
 20
-2.102194445369066
 11
82.39582765513106
 21
-2.272426047530793
  0
LINE
  5
135
100
AcDbEntity
  8
0
  6
ByLayer
 62
    7
370
   -1
100
AcDbLine
 10
82.39582765513106
 20
-2.272426047530793
 11
82.88754766285152
 21
-2.423930791916683
  0
LINE
  5
136
100
AcDbEntity
  8
0
  6
ByLayer
 62
    7
370
   -1
100
AcDbLine
 10
82.88754766285152
 20
-2.423930791916683
 11
83.38875075002551
 21
-2.556125249974489
  0
LINE
  5
137
100
AcDbEntity
  8
0
  6
ByLayer
 62
    7
370
   -1
100
AcDbLine
 10
83.38875075002551
 20
-2.556125249974489
 11
84.18435135255648
 21
-2.799236594340238
  0
LINE
  5
138
100
AcDbEntity
  8
0
  6
ByLayer
 62
    7
370
   -1
100
AcDbLine
 10
84.18435135255648
 20
-2.799236594340238
 11
84.98466160565306
 21
-3.028705661508174
  0
LINE
  5
139
100
AcDbEntity
  8
0
  6
ByLayer
 62
    7
370
   -1
100
AcDbLine
 10
84.98466160565306
 20
-3.028705661508174
 11
85.78937869369977
 21
-3.244411776777886
  0
LINE
  5
13A
100
AcDbEntity
  8
0
  6
ByLayer
 62
    7
370
   -1
100
AcDbLine
 10
85.78937869369977
 20
-3.244411776777886
 11
86.59819980108121
 21
-3.446234265448961
  0
LINE
  5
13B
100
AcDbEntity
  8
0
  6
ByLayer
 62
    7
370
   -1
100
AcDbLine
 10
86.59819980108121
 20
-3.446234265448961
 11
87.41082211218186
 21
-3.634052452820986
  0
LINE
  5
13C
100
AcDbEntity
  8
0
  6
ByLayer
 62
    7
370
   -1
100
AcDbLine
 10
87.41082211218186
 20
-3.634052452820986
 11
88.22694281138634
 21
-3.807745664193548
  0
LINE
  5
13D
100
AcDbEntity
  8
0
  6
ByLayer
 62
    7
370
   -1
100
AcDbLine
 10
88.22694281138634
 20
-3.807745664193548
 11
89.04625908307912
 21
-3.967193224866234
  0
LINE
  5
13E
100
AcDbEntity
  8
0
  6
ByLayer
 62
    7
370
   -1
100
AcDbLine
 10
89.04625908307912
 20
-3.967193224866234
 11
89.8684681116448
 21
-4.112274460138631
  0
LINE
  5
13F
100
AcDbEntity
  8
0
  6
ByLayer
 62
    7
370
   -1
100
AcDbLine
 10
89.8684681116448
 20
-4.112274460138631
 11
90.69326708146788
 21
-4.242868695310328
  0
LINE
  5
140
100
AcDbEntity
  8
0
  6
ByLayer
 62
    7
370
   -1
100
AcDbLine
 10
90.69326708146788
 20
-4.242868695310328
 11
91.52035317693294
 21
-4.358855255680909
  0
LINE
  5
141
100
AcDbEntity
  8
0
  6
ByLayer
 62
    7
370
   -1
100
AcDbLine
 10
91.52035317693294
 20
-4.358855255680909
 11
92.34942358242455
 21
-4.460113466549963
  0
LINE
  5
142
100
AcDbEntity
  8
0
  6
ByLayer
 62
    7
370
   -1
100
AcDbLine
 10
92.34942358242455
 20
-4.460113466549963
 11
93.1801754823272
 21
-4.546522653217077
  0
LINE
  5
143
100
AcDbEntity
  8
0
  6
ByLayer
 62
    7
370
   -1
100
AcDbLine
 10
93.1801754823272
 20
-4.546522653217077
 11
94.01230606102547
 21
-4.617962140981838
  0
LINE
  5
144
100
AcDbEntity
  8
0
  6
ByLayer
 62
    7
370
   -1
100
AcDbLine
 10
94.01230606102547
 20
-4.617962140981838
 11
94.84551250290389
 21
-4.674311255143833
  0
LINE
  5
145
100
AcDbEntity
  8
0
  6
ByLayer
 62
    7
370
   -1
100
AcDbLine
 10
94.84551250290389
 20
-4.674311255143833
 11
95.67949199234701
 21
-4.71544932100265
  0
LINE
  5
146
100
AcDbEntity
  8
0
  6
ByLayer
 62
    7
370
   -1
100
AcDbLine
 10
95.67949199234701
 20
-4.71544932100265
 11
96.51394171373937
 21
-4.741255663857874
  0
LINE
  5
147
100
AcDbEntity
  8
0
  6
ByLayer
 62
    7
370
   -1
100
AcDbLine
 10
96.51394171373937
 20
-4.741255663857874
 11
97.34855885146553
 21
-4.751609609009094
  0
LINE
  5
148
100
AcDbEntity
  8
0
  6
ByLayer
 62
    7
370
   -1
100
AcDbLine
 10
97.34855885146553
 20
-4.751609609009094
 11
98.18304058991004
 21
-4.746390481755897
  0
LINE
  5
149
100
AcDbEntity
  8
0
  6
ByLayer
 62
    7
370
   -1
100
AcDbLine
 10
98.18304058991004
 20
-4.746390481755897
 11
99.0170841134574
 21
-4.725477607397869
  0
LINE
  5
14A
100
AcDbEntity
  8
0
  6
ByLayer
 62
    7
370
   -1
100
AcDbLine
 10
99.0170841134574
 20
-4.725477607397869
 11
99.85038660649221
 21
-4.688750311234599
  0
LINE
  5
14B
100
AcDbEntity
  8
0
  6
ByLayer
 62
    7
370
   -1
100
AcDbLine
 10
99.85038660649221
 20
-4.688750311234599
 11
100.682645253399
 21
-4.636087918565671
  0
LINE
  5
14C
100
AcDbEntity
  8
0
  6
ByLayer
 62
    7
370
   -1
100
AcDbLine
 10
100.682645253399
 20
-4.636087918565671
 11
101.5135572385623
 21
-4.567369754690676
  0
LINE
  5
14D
100
AcDbEntity
  8
0
  6
ByLayer
 62
    7
370
   -1
100
AcDbLine
 10
101.5135572385623
 20
-4.567369754690676
 11
102.3428197463667
 21
-4.482475144909198
  0
LINE
  5
14E
100
AcDbEntity
  8
0
  6
ByLayer
 62
    7
370
   -1
100
AcDbLine
 10
102.3428197463667
 20
-4.482475144909198
 11
103.1701299611967
 21
-4.381283414520825
  0
LINE
  5
14F
100
AcDbEntity
  8
0
  6
ByLayer
 62
    7
370
   -1
100
AcDbLine
 10
103.1701299611967
 20
-4.381283414520825
 11
103.9951850674368
 21
-4.263673888825146
  0
LINE
  5
150
100
AcDbEntity
  8
0
  6
ByLayer
 62
    7
370
   -1
100
AcDbLine
 10
103.9951850674368
 20
-4.263673888825146
 11
104.8176822494716
 21
-4.129525893121745
  0
LINE
  5
151
100
AcDbEntity
  8
0
  6
ByLayer
 62
    7
370
   -1
100
AcDbLine
 10
104.8176822494716
 20
-4.129525893121745
 11
105.6373186916857
 21
-3.978718752710211
  0
LINE
  5
152
100
AcDbEntity
  8
0
  6
ByLayer
 62
    7
370
   -1
100
AcDbLine
 10
105.6373186916857
 20
-3.978718752710211
 11
106.4537915784636
 21
-3.811131792890132
  0
LINE
  5
153
100
AcDbEntity
  8
0
  6
ByLayer
 62
    7
370
   -1
100
AcDbLine
 10
106.4537915784636
 20
-3.811131792890132
 11
107.2667980941898
 21
-3.626644338961092
  0
LINE
  5
154
100
AcDbEntity
  8
0
  6
ByLayer
 62
    7
370
   -1
100
AcDbLine
 10
107.2667980941898
 20
-3.626644338961092
 11
108.0760354232489
 21
-3.425135716222681
  0
LINE
  5
155
100
AcDbEntity
  8
0
  6
ByLayer
 62
    7
370
   -1
100
AcDbLine
 10
108.0760354232489
 20
-3.425135716222681
 11
108.8812007500255
 21
-3.206485249974481
  0
LINE
  5
156
100
AcDbEntity
  8
0
  6
ByLayer
 62
    7
370
   -1
100
AcDbLine
 10
108.8812007500255
 20
-3.206485249974481
 11
109.2490598007455
 21
-3.094039692927051
  0
LINE
  5
157
100
AcDbEntity
  8
0
  6
ByLayer
 62
    7
370
   -1
100
AcDbLine
 10
109.2490598007455
 20
-3.094039692927051
 11
109.6140133014672
 21
-2.972112760296392
  0
LINE
  5
158
100
AcDbEntity
  8
0
  6
ByLayer
 62
    7
370
   -1
100
AcDbLine
 10
109.6140133014672
 20
-2.972112760296392
 11
109.9757702911621
 21
-2.840794543720916
  0
LINE
  5
159
100
AcDbEntity
  8
0
  6
ByLayer
 62
    7
370
   -1
100
AcDbLine
 10
109.9757702911621
 20
-2.840794543720916
 11
110.3340398088016
 21
-2.70017513483904
  0
LINE
  5
15A
100
AcDbEntity
  8
0
  6
ByLayer
 62
    7
370
   -1
100
AcDbLine
 10
110.3340398088016
 20
-2.70017513483904
 11
110.6885308933574
 21
-2.550344625289175
  0
LINE
  5
15B
100
AcDbEntity
  8
0
  6
ByLayer
 62
    7
370
   -1
100
AcDbLine
 10
110.6885308933574
 20
-2.550344625289175
 11
111.0389525838008
 21
-2.39139310670974
  0
LINE
  5
15C
100
AcDbEntity
  8
0
  6
ByLayer
 62
    7
370
   -1
100
AcDbLine
 10
111.0389525838008
 20
-2.39139310670974
 11
111.3850139191034
 21
-2.223410670739144
  0
LINE
  5
15D
100
AcDbEntity
  8
0
  6
ByLayer
 62
    7
370
   -1
100
AcDbLine
 10
111.3850139191034
 20
-2.223410670739144
 11
111.7264239382367
 21
-2.046487409015805
  0
LINE
  5
15E
100
AcDbEntity
  8
0
  6
ByLayer
 62
    7
370
   -1
100
AcDbLine
 10
111.7264239382367
 20
-2.046487409015805
 11
112.0628916801722
 21
-1.860713413178137
  0
LINE
  5
15F
100
AcDbEntity
  8
0
  6
ByLayer
 62
    7
370
   -1
100
AcDbLine
 10
112.0628916801722
 20
-1.860713413178137
 11
112.3941261838813
 21
-1.666178774864552
  0
LINE
  5
160
100
AcDbEntity
  8
0
  6
ByLayer
 62
    7
370
   -1
100
AcDbLine
 10
112.3941261838813
 20
-1.666178774864552
 11
112.7198364883357
 21
-1.462973585713467
  0
LINE
  5
161
100
AcDbEntity
  8
0
  6
ByLayer
 62
    7
370
   -1
100
AcDbLine
 10
112.7198364883357
 20
-1.462973585713467
 11
113.0397316325068
 21
-1.251187937363294
  0
LINE
  5
162
100
AcDbEntity
  8
0
  6
ByLayer
 62
    7
370
   -1
100
AcDbLine
 10
113.0397316325068
 20
-1.251187937363294
 11
113.353520655366
 21
-1.030911921452449
  0
LINE
  5
163
100
AcDbEntity
  8
0
  6
ByLayer
 62
    7
370
   -1
100
AcDbLine
 10
113.353520655366
 20
-1.030911921452449
 11
113.660912595885
 21
-0.8022356296193457
  0
LINE
  5
164
100
AcDbEntity
  8
0
  6
ByLayer
 62
    7
370
   -1
100
AcDbLine
 10
113.660912595885
 20
-0.8022356296193457
 11
113.9616164930351
 21
-0.565249153502398
  0
LINE
  5
165
100
AcDbEntity
  8
0
  6
ByLayer
 62
    7
370
   -1
100
AcDbLine
 10
113.9616164930351
 20
-0.565249153502398
 11
114.255341385788
 21
-0.3200425847400207
  0
LINE
  5
166
100
AcDbEntity
  8
0
  6
ByLayer
 62
    7
370
   -1
100
AcDbLine
 10
114.255341385788
 20
-0.3200425847400207
 11
114.541796313115
 21
-0.06670601497062756
  0
LINE
  5
167
100
AcDbEntity
  8
0
  6
ByLayer
 62
    7
370
   -1
100
AcDbLine
 10
114.541796313115
 20
-0.06670601497062756
 11
114.8206903139878
 21
0.1946704641673671
  0
LINE
  5
168
100
AcDbEntity
  8
0
  6
ByLayer
 62
    7
370
   -1
100
AcDbLine
 10
114.8206903139878
 20
0.1946704641673671
 11
115.0917324273777
 21
0.4639967610355482
  0
LINE
  5
169
100
AcDbEntity
  8
0
  6
ByLayer
 62
    7
370
   -1
100
AcDbLine
 10
115.0917324273777
 20
0.4639967610355482
 11
115.3546316922564
 21
0.7411827839955023
  0
LINE
  5
16A
100
AcDbEntity
  8
0
  6
ByLayer
 62
    7
370
   -1
100
AcDbLine
 10
115.3546316922564
 20
0.7411827839955023
 11
115.6090971475952
 21
1.026138441408815
  0
LINE
  5
16B
100
AcDbEntity
  8
0
  6
ByLayer
 62
    7
370
   -1
100
AcDbLine
 10
115.6090971475952
 20
1.026138441408815
 11
115.8548378323658
 21
1.318773641637071
  0
LINE
  5
16C
100
AcDbEntity
  8
0
  6
ByLayer
 62
    7
370
   -1
100
AcDbLine
 10
115.8548378323658
 20
1.318773641637071
 11
116.0915627855396
 21
1.618998293041857
  0
LINE
  5
16D
100
AcDbEntity
  8
0
  6
ByLayer
 62
    7
370
   -1
100
AcDbLine
 10
116.0915627855396
 20
1.618998293041857
 11
116.3189810460881
 21
1.926722303984759
  0
LINE
  5
16E
100
AcDbEntity
  8
0
  6
ByLayer
 62
    7
370
   -1
100
AcDbLine
 10
116.3189810460881
 20
1.926722303984759
 11
116.5368016529828
 21
2.241855582827363
  0
LINE
  5
16F
100
AcDbEntity
  8
0
  6
ByLayer
 62
    7
370
   -1
100
AcDbLine
 10
116.5368016529828
 20
2.241855582827363
 11
116.7447336451952
 21
2.564308037931252
  0
LINE
  5
170
100
AcDbEntity
  8
0
  6
ByLayer
 62
    7
370
   -1
100
AcDbLine
 10
116.7447336451952
 20
2.564308037931252
 11
116.9424860616968
 21
2.893989577658016
  0
LINE
  5
171
100
AcDbEntity
  8
0
  6
ByLayer
 62
    7
370
   -1
100
AcDbLine
 10
116.9424860616968
 20
2.893989577658016
 11
117.1297679414591
 21
3.230810110369236
  0
LINE
  5
172
100
AcDbEntity
  8
0
  6
ByLayer
 62
    7
370
   -1
100
AcDbLine
 10
117.1297679414591
 20
3.230810110369236
 11
117.3062883234537
 21
3.574679544426502
  0
LINE
  5
173
100
AcDbEntity
  8
0
  6
ByLayer
 62
    7
370
   -1
100
AcDbLine
 10
117.3062883234537
 20
3.574679544426502
 11
117.471756246652
 21
3.925507788191397
  0
LINE
  5
174
100
AcDbEntity
  8
0
  6
ByLayer
 62
    7
370
   -1
100
AcDbLine
 10
117.471756246652
 20
3.925507788191397
 11
117.6258807500255
 21
4.283204750025515
  0
LINE
  5
175
100
AcDbEntity
  8
0
  6
ByLayer
 62
    7
370
   -1
100
AcDbLine
 10
117.6258807500255
 20
4.283204750025515
 11
117.8865761029845
 21
4.82767801644826
  0
LINE
  5
176
100
AcDbEntity
  8
0
  6
ByLayer
 62
    7
370
   -1
100
AcDbLine
 10
117.8865761029845
 20
4.82767801644826
 11
118.1352185372767
 21
5.376620558826831
  0
LINE
  5
177
100
AcDbEntity
  8
0
  6
ByLayer
 62
    7
370
   -1
100
AcDbLine
 10
118.1352185372767
 20
5.376620558826831
 11
118.3719951966705
 21
5.929848749891246
  0
LINE
  5
178
100
AcDbEntity
  8
0
  6
ByLayer
 62
    7
370
   -1
100
AcDbLine
 10
118.3719951966705
 20
5.929848749891246
 11
118.597093224934
 21
6.487178962371525
  0
LINE
  5
179
100
AcDbEntity
  8
0
  6
ByLayer
 62
    7
370
   -1
100
AcDbLine
 10
118.597093224934
 20
6.487178962371525
 11
118.8106997658357
 21
7.048427568997687
  0
LINE
  5
17A
100
AcDbEntity
  8
0
  6
ByLayer
 62
    7
370
   -1
100
AcDbLine
 10
118.8106997658357
 20
7.048427568997687
 11
119.0130019631436
 21
7.613410942499751
  0
LINE
  5
17B
100
AcDbEntity
  8
0
  6
ByLayer
 62
    7
370
   -1
100
AcDbLine
 10
119.0130019631436
 20
7.613410942499751
 11
119.204186960626
 21
8.181945455607737
  0
LINE
  5
17C
100
AcDbEntity
  8
0
  6
ByLayer
 62
    7
370
   -1
100
AcDbLine
 10
119.204186960626
 20
8.181945455607737
 11
119.3844419020513
 21
8.753847481051663
  0
LINE
  5
17D
100
AcDbEntity
  8
0
  6
ByLayer
 62
    7
370
   -1
100
AcDbLine
 10
119.3844419020513
 20
8.753847481051663
 11
119.5539539311876
 21
9.328933391561545
  0
LINE
  5
17E
100
AcDbEntity
  8
0
  6
ByLayer
 62
    7
370
   -1
100
AcDbLine
 10
119.5539539311876
 20
9.328933391561545
 11
119.7129101918032
 21
9.907019559867409
  0
LINE
  5
17F
100
AcDbEntity
  8
0
  6
ByLayer
 62
    7
370
   -1
100
AcDbLine
 10
119.7129101918032
 20
9.907019559867409
 11
119.8614978276664
 21
10.48792235869927
  0
LINE
  5
180
100
AcDbEntity
  8
0
  6
ByLayer
 62
    7
370
   -1
100
AcDbLine
 10
119.8614978276664
 20
10.48792235869927
 11
119.9999039825454
 21
11.07145816078715
  0
LINE
  5
181
100
AcDbEntity
  8
0
  6
ByLayer
 62
    7
370
   -1
100
AcDbLine
 10
119.9999039825454
 20
11.07145816078715
 11
120.1283158002085
 21
11.65744333886106
  0
LINE
  5
182
100
AcDbEntity
  8
0
  6
ByLayer
 62
    7
370
   -1
100
AcDbLine
 10
120.1283158002085
 20
11.65744333886106
 11
120.2469204244238
 21
12.24569426565104
  0
LINE
  5
183
100
AcDbEntity
  8
0
  6
ByLayer
 62
    7
370
   -1
100
AcDbLine
 10
120.2469204244238
 20
12.24569426565104
 11
120.3559049989597
 21
12.83602731388708
  0
LINE
  5
184
100
AcDbEntity
  8
0
  6
ByLayer
 62
    7
370
   -1
100
AcDbLine
 10
120.3559049989597
 20
12.83602731388708
 11
120.4554566675845
 21
13.42825885629921
  0
LINE
  5
185
100
AcDbEntity
  8
0
  6
ByLayer
 62
    7
370
   -1
100
AcDbLine
 10
120.4554566675845
 20
13.42825885629921
 11
120.5457625740663
 21
14.02220526561747
  0
LINE
  5
186
100
AcDbEntity
  8
0
  6
ByLayer
 62
    7
370
   -1
100
AcDbLine
 10
120.5457625740663
 20
14.02220526561747
 11
120.6270098621735
 21
14.61768291457185
  0
LINE
  5
187
100
AcDbEntity
  8
0
  6
ByLayer
 62
    7
370
   -1
100
AcDbLine
 10
120.6270098621735
 20
14.61768291457185
 11
120.6993856756742
 21
15.21450817589238
  0
LINE
  5
188
100
AcDbEntity
  8
0
  6
ByLayer
 62
    7
370
   -1
100
AcDbLine
 10
120.6993856756742
 20
15.21450817589238
 11
120.7630771583367
 21
15.81249742230908
  0
LINE
  5
189
100
AcDbEntity
  8
0
  6
ByLayer
 62
    7
370
   -1
100
AcDbLine
 10
120.7630771583367
 20
15.81249742230908
 11
120.8182714539294
 21
16.41146702655197
  0
LINE
  5
18A
100
AcDbEntity
  8
0
  6
ByLayer
 62
    7
370
   -1
100
AcDbLine
 10
120.8182714539294
 20
16.41146702655197
 11
120.8651557062203
 21
17.01123336135107
  0
LINE
  5
18B
100
AcDbEntity
  8
0
  6
ByLayer
 62
    7
370
   -1
100
AcDbLine
 10
120.8651557062203
 20
17.01123336135107
 11
120.9039170589779
 21
17.6116127994364
  0
LINE
  5
18C
100
AcDbEntity
  8
0
  6
ByLayer
 62
    7
370
   -1
100
AcDbLine
 10
120.9039170589779
 20
17.6116127994364
 11
120.9347426559702
 21
18.21242171353797
  0
LINE
  5
18D
100
AcDbEntity
  8
0
  6
ByLayer
 62
    7
370
   -1
100
AcDbLine
 10
120.9347426559702
 20
18.21242171353797
 11
120.9578196409657
 21
18.81347647638581
  0
LINE
  5
18E
100
AcDbEntity
  8
0
  6
ByLayer
 62
    7
370
   -1
100
AcDbLine
 10
120.9578196409657
 20
18.81347647638581
 11
120.9733351577325
 21
19.41459346070993
  0
LINE
  5
18F
100
AcDbEntity
  8
0
  6
ByLayer
 62
    7
370
   -1
100
AcDbLine
 10
120.9733351577325
 20
19.41459346070993
 11
120.9814763500389
 21
20.01558903924036
  0
LINE
  5
190
100
AcDbEntity
  8
0
  6
ByLayer
 62
    7
370
   -1
100
AcDbLine
 10
120.9814763500389
 20
20.01558903924036
 11
120.9824303616532
 21
20.61627958470712
  0
LINE
  5
191
100
AcDbEntity
  8
0
  6
ByLayer
 62
    7
370
   -1
100
AcDbLine
 10
120.9824303616532
 20
20.61627958470712
 11
120.9763843363435
 21
21.21648146984021
  0
LINE
  5
192
100
AcDbEntity
  8
0
  6
ByLayer
 62
    7
370
   -1
100
AcDbLine
 10
120.9763843363435
 20
21.21648146984021
 11
120.9635254178782
 21
21.81601106736966
  0
LINE
  5
193
100
AcDbEntity
  8
0
  6
ByLayer
 62
    7
370
   -1
100
AcDbLine
 10
120.9635254178782
 20
21.81601106736966
 11
120.9440407500255
 21
22.41468475002551
  0
LINE
  5
194
100
AcDbEntity
  8
0
  6
ByLayer
 62
    7
370
   -1
100
AcDbLine
 10
120.9440407500255
 20
22.41468475002551
 11
120.9440407500255
 21
22.41468475002551
  0
LINE
  5
195
100
AcDbEntity
  8
0
  6
ByLayer
 62
    7
370
   -1
100
AcDbLine
 10
124.8984349298156
 20
23.5009675225383
 11
124.8873177063756
 21
23.95043809729242
  0
LINE
  5
196
100
AcDbEntity
  8
0
  6
ByLayer
 62
    7
370
   -1
100
AcDbLine
 10
124.8873177063756
 20
23.95043809729242
 11
124.8598289445852
 21
24.39946927561809
  0
LINE
  5
197
100
AcDbEntity
  8
0
  6
ByLayer
 62
    7
370
   -1
100
AcDbLine
 10
124.8598289445852
 20
24.39946927561809
 11
124.8161491362706
 21
24.84746169022317
  0
LINE
  5
198
100
AcDbEntity
  8
0
  6
ByLayer
 62
    7
370
   -1
100
AcDbLine
 10
124.8161491362706
 20
24.84746169022317
 11
124.7564587732582
 21
25.29381597381553
  0
LINE
  5
199
100
AcDbEntity
  8
0
  6
ByLayer
 62
    7
370
   -1
100
AcDbLine
 10
124.7564587732582
 20
25.29381597381553
 11
124.6809383473746
 21
25.73793275910303
  0
LINE
  5
19A
100
AcDbEntity
  8
0
  6
ByLayer
 62
    7
370
   -1
100
AcDbLine
 10
124.6809383473746
 20
25.73793275910303
 11
124.589768350446
 21
26.17921267879354
  0
LINE
  5
19B
100
AcDbEntity
  8
0
  6
ByLayer
 62
    7
370
   -1
100
AcDbLine
 10
124.589768350446
 20
26.17921267879354
 11
124.4831292742988
 21
26.61705636559492
  0
LINE
  5
19C
100
AcDbEntity
  8
0
  6
ByLayer
 62
    7
370
   -1
100
AcDbLine
 10
124.4831292742988
 20
26.61705636559492
 11
124.3612016107595
 21
27.05086445221504
  0
LINE
  5
19D
100
AcDbEntity
  8
0
  6
ByLayer
 62
    7
370
   -1
100
AcDbLine
 10
124.3612016107595
 20
27.05086445221504
 11
124.2241658516544
 21
27.48003757136176
  0
LINE
  5
19E
100
AcDbEntity
  8
0
  6
ByLayer
 62
    7
370
   -1
100
AcDbLine
 10
124.2241658516544
 20
27.48003757136176
 11
124.0722024888099
 21
27.90397635574295
  0
LINE
  5
19F
100
AcDbEntity
  8
0
  6
ByLayer
 62
    7
370
   -1
100
AcDbLine
 10
124.0722024888099
 20
27.90397635574295
 11
123.9054920140524
 21
28.32208143806647
  0
LINE
  5
1A0
100
AcDbEntity
  8
0
  6
ByLayer
 62
    7
370
   -1
100
AcDbLine
 10
123.9054920140524
 20
28.32208143806647
 11
123.7242149192084
 21
28.73375345104019
  0
LINE
  5
1A1
100
AcDbEntity
  8
0
  6
ByLayer
 62
    7
370
   -1
100
AcDbLine
 10
123.7242149192084
 20
28.73375345104019
 11
123.5285516961041
 21
29.13839302737196
  0
LINE
  5
1A2
100
AcDbEntity
  8
0
  6
ByLayer
 62
    7
370
   -1
100
AcDbLine
 10
123.5285516961041
 20
29.13839302737196
 11
123.318682836566
 21
29.53540079976967
  0
LINE
  5
1A3
100
AcDbEntity
  8
0
  6
ByLayer
 62
    7
370
   -1
100
AcDbLine
 10
123.318682836566
 20
29.53540079976967
 11
123.0947888324204
 21
29.92417740094116
  0
LINE
  5
1A4
100
AcDbEntity
  8
0
  6
ByLayer
 62
    7
370
   -1
100
AcDbLine
 10
123.0947888324204
 20
29.92417740094116
 11
122.8570501754938
 21
30.30412346359431
  0
LINE
  5
1A5
100
AcDbEntity
  8
0
  6
ByLayer
 62
    7
370
   -1
100
AcDbLine
 10
122.8570501754938
 20
30.30412346359431
 11
122.6056473576126
 21
30.67463962043698
  0
LINE
  5
1A6
100
AcDbEntity
  8
0
  6
ByLayer
 62
    7
370
   -1
100
AcDbLine
 10
122.6056473576126
 20
30.67463962043698
 11
122.3407608706031
 21
31.03512650417704
  0
LINE
  5
1A7
100
AcDbEntity
  8
0
  6
ByLayer
 62
    7
370
   -1
100
AcDbLine
 10
122.3407608706031
 20
31.03512650417704
 11
122.0625712062917
 21
31.38498474752235
  0
LINE
  5
1A8
100
AcDbEntity
  8
0
  6
ByLayer
 62
    7
370
   -1
100
AcDbLine
 10
122.0625712062917
 20
31.38498474752235
 11
121.7712588565049
 21
31.72361498318076
  0
LINE
  5
1A9
100
AcDbEntity
  8
0
  6
ByLayer
 62
    7
370
   -1
100
AcDbLine
 10
121.7712588565049
 20
31.72361498318076
 11
121.4670043130689
 21
32.05041784386016
  0
LINE
  5
1AA
100
AcDbEntity
  8
0
  6
ByLayer
 62
    7
370
   -1
100
AcDbLine
 10
121.4670043130689
 20
32.05041784386016
 11
121.1499880678103
 21
32.36479396226841
  0
LINE
  5
1AB
100
AcDbEntity
  8
0
  6
ByLayer
 62
    7
370
   -1
100
AcDbLine
 10
121.1499880678103
 20
32.36479396226841
 11
120.8203906125554
 21
32.66614397111336
  0
LINE
  5
1AC
100
AcDbEntity
  8
0
  6
ByLayer
 62
    7
370
   -1
100
AcDbLine
 10
120.8203906125554
 20
32.66614397111336
 11
120.4783924391305
 21
32.95386850310288
  0
LINE
  5
1AD
100
AcDbEntity
  8
0
  6
ByLayer
 62
    7
370
   -1
100
AcDbLine
 10
120.4783924391305
 20
32.95386850310288
 11
120.1241740393621
 21
33.22736819094486
  0
LINE
  5
1AE
100
AcDbEntity
  8
0
  6
ByLayer
 62
    7
370
   -1
100
AcDbLine
 10
120.1241740393621
 20
33.22736819094486
 11
119.7579159050766
 21
33.48604366734712
  0
LINE
  5
1AF
100
AcDbEntity
  8
0
  6
ByLayer
 62
    7
370
   -1
100
AcDbLine
 10
119.7579159050766
 20
33.48604366734712
 11
119.3797985281003
 21
33.72929556501756
  0
LINE
  5
1B0
100
AcDbEntity
  8
0
  6
ByLayer
 62
    7
370
   -1
100
AcDbLine
 10
119.3797985281003
 20
33.72929556501756
 11
118.9900024002597
 21
33.95652451666403
  0
LINE
  5
1B1
100
AcDbEntity
  8
0
  6
ByLayer
 62
    7
370
   -1
100
AcDbLine
 10
118.9900024002597
 20
33.95652451666403
 11
118.5887080133811
 21
34.16713115499439
  0
LINE
  5
1B2
100
AcDbEntity
  8
0
  6
ByLayer
 62
    7
370
   -1
100
AcDbLine
 10
118.5887080133811
 20
34.16713115499439
 11
118.176095859291
 21
34.36051611271653
  0
LINE
  5
1B3
100
AcDbEntity
  8
0
  6
ByLayer
 62
    7
370
   -1
100
AcDbLine
 10
118.176095859291
 20
34.36051611271653
 11
117.7523464298156
 21
34.53608002253829
  0
LINE
  5
1B4
100
AcDbEntity
  8
0
  6
ByLayer
 62
    7
370
   -1
100
AcDbLine
 10
117.7523464298156
 20
34.53608002253829
 11
117.2863039937443
 21
34.72699922832192
  0
LINE
  5
1B5
100
AcDbEntity
  8
0
  6
ByLayer
 62
    7
370
   -1
100
AcDbLine
 10
117.2863039937443
 20
34.72699922832192
 11
116.8176950962921
 21
34.91062999034737
  0
LINE
  5
1B6
100
AcDbEntity
  8
0
  6
ByLayer
 62
    7
370
   -1
100
AcDbLine
 10
116.8176950962921
 20
34.91062999034737
 11
116.3466223052142
 21
35.08715891272325
  0
LINE
  5
1B7
100
AcDbEntity
  8
0
  6
ByLayer
 62
    7
370
   -1
100
AcDbLine
 10
116.3466223052142
 20
35.08715891272325
 11
115.8731881882661
 21
35.2567725995582
  0
LINE
  5
1B8
100
AcDbEntity
  8
0
  6
ByLayer
 62
    7
370
   -1
100
AcDbLine
 10
115.8731881882661
 20
35.2567725995582
 11
115.3974953132032
 21
35.41965765496083
  0
LINE
  5
1B9
100
AcDbEntity
  8
0
  6
ByLayer
 62
    7
370
   -1
100
AcDbLine
 10
115.3974953132032
 20
35.41965765496083
 11
114.9196462477808
 21
35.57600068303979
  0
LINE
  5
1BA
100
AcDbEntity
  8
0
  6
ByLayer
 62
    7
370
   -1
100
AcDbLine
 10
114.9196462477808
 20
35.57600068303979
 11
114.4397435597542
 21
35.72598828790367
  0
LINE
  5
1BB
100
AcDbEntity
  8
0
  6
ByLayer
 62
    7
370
   -1
100
AcDbLine
 10
114.4397435597542
 20
35.72598828790367
 11
113.9578898168788
 21
35.86980707366111
  0
LINE
  5
1BC
100
AcDbEntity
  8
0
  6
ByLayer
 62
    7
370
   -1
100
AcDbLine
 10
113.9578898168788
 20
35.86980707366111
 11
113.47418758691
 21
36.00764364442073
  0
LINE
  5
1BD
100
AcDbEntity
  8
0
  6
ByLayer
 62
    7
370
   -1
100
AcDbLine
 10
113.47418758691
 20
36.00764364442073
 11
112.9887394376032
 21
36.13968460429115
  0
LINE
  5
1BE
100
AcDbEntity
  8
0
  6
ByLayer
 62
    7
370
   -1
100
AcDbLine
 10
112.9887394376032
 20
36.13968460429115
 11
112.5016479367137
 21
36.26611655738103
  0
LINE
  5
1BF
100
AcDbEntity
  8
0
  6
ByLayer
 62
    7
370
   -1
100
AcDbLine
 10
112.5016479367137
 20
36.26611655738103
 11
112.0130156519968
 21
36.38712610779893
  0
LINE
  5
1C0
100
AcDbEntity
  8
0
  6
ByLayer
 62
    7
370
   -1
100
AcDbLine
 10
112.0130156519968
 20
36.38712610779893
 11
111.522945151208
 21
36.50289985965352
  0
LINE
  5
1C1
100
AcDbEntity
  8
0
  6
ByLayer
 62
    7
370
   -1
100
AcDbLine
 10
111.522945151208
 20
36.50289985965352
 11
111.0315390021025
 21
36.61362441705341
  0
LINE
  5
1C2
100
AcDbEntity
  8
0
  6
ByLayer
 62
    7
370
   -1
100
AcDbLine
 10
111.0315390021025
 20
36.61362441705341
 11
110.5388997724359
 21
36.71948638410721
  0
LINE
  5
1C3
100
AcDbEntity
  8
0
  6
ByLayer
 62
    7
370
   -1
100
AcDbLine
 10
110.5388997724359
 20
36.71948638410721
 11
110.0451300299633
 21
36.82067236492357
  0
LINE
  5
1C4
100
AcDbEntity
  8
0
  6
ByLayer
 62
    7
370
   -1
100
AcDbLine
 10
110.0451300299633
 20
36.82067236492357
 11
109.5503323424402
 21
36.91736896361109
  0
LINE
  5
1C5
100
AcDbEntity
  8
0
  6
ByLayer
 62
    7
370
   -1
100
AcDbLine
 10
109.5503323424402
 20
36.91736896361109
 11
109.054609277622
 21
37.00976278427841
  0
LINE
  5
1C6
100
AcDbEntity
  8
0
  6
ByLayer
 62
    7
370
   -1
100
AcDbLine
 10
109.054609277622
 20
37.00976278427841
 11
108.558063403264
 21
37.09804043103414
  0
LINE
  5
1C7
100
AcDbEntity
  8
0
  6
ByLayer
 62
    7
370
   -1
100
AcDbLine
 10
108.558063403264
 20
37.09804043103414
 11
108.0607972871215
 21
37.18238850798691
  0
LINE
  5
1C8
100
AcDbEntity
  8
0
  6
ByLayer
 62
    7
370
   -1
100
AcDbLine
 10
108.0607972871215
 20
37.18238850798691
 11
107.56291349695
 21
37.26299361924534
  0
LINE
  5
1C9
100
AcDbEntity
  8
0
  6
ByLayer
 62
    7
370
   -1
100
AcDbLine
 10
107.56291349695
 20
37.26299361924534
 11
107.0645146005047
 21
37.34004236891806
  0
LINE
  5
1CA
100
AcDbEntity
  8
0
  6
ByLayer
 62
    7
370
   -1
100
AcDbLine
 10
107.0645146005047
 20
37.34004236891806
 11
106.5657031655412
 21
37.41372136111369
  0
LINE
  5
1CB
100
AcDbEntity
  8
0
  6
ByLayer
 62
    7
370
   -1
100
AcDbLine
 10
106.5657031655412
 20
37.41372136111369
 11
106.0665817598146
 21
37.48421719994086
  0
LINE
  5
1CC
100
AcDbEntity
  8
0
  6
ByLayer
 62
    7
370
   -1
100
AcDbLine
 10
106.0665817598146
 20
37.48421719994086
 11
105.5672529510804
 21
37.55171648950817
  0
LINE
  5
1CD
100
AcDbEntity
  8
0
  6
ByLayer
 62
    7
370
   -1
100
AcDbLine
 10
105.5672529510804
 20
37.55171648950817
 11
105.067819307094
 21
37.61640583392427
  0
LINE
  5
1CE
100
AcDbEntity
  8
0
  6
ByLayer
 62
    7
370
   -1
100
AcDbLine
 10
105.067819307094
 20
37.61640583392427
 11
104.5683833956107
 21
37.67847183729778
  0
LINE
  5
1CF
100
AcDbEntity
  8
0
  6
ByLayer
 62
    7
370
   -1
100
AcDbLine
 10
104.5683833956107
 20
37.67847183729778
 11
104.0690477843858
 21
37.73810110373731
  0
LINE
  5
1D0
100
AcDbEntity
  8
0
  6
ByLayer
 62
    7
370
   -1
100
AcDbLine
 10
104.0690477843858
 20
37.73810110373731
 11
103.5699150411747
 21
37.79548023735148
  0
LINE
  5
1D1
100
AcDbEntity
  8
0
  6
ByLayer
 62
    7
370
   -1
100
AcDbLine
 10
103.5699150411747
 20
37.79548023735148
 11
103.0710877337329
 21
37.85079584224894
  0
LINE
  5
1D2
100
AcDbEntity
  8
0
  6
ByLayer
 62
    7
370
   -1
100
AcDbLine
 10
103.0710877337329
 20
37.85079584224894
 11
102.5726684298156
 21
37.90423452253829
  0
LINE
  5
1D3
100
AcDbEntity
  8
0
  6
ByLayer
 62
    7
370
   -1
100
AcDbLine
 10
102.5726684298156
 20
37.90423452253829
 11
101.6150234332395
 21
37.99075987826653
  0
LINE
  5
1D4
100
AcDbEntity
  8
0
  6
ByLayer
 62
    7
370
   -1
100
AcDbLine
 10
101.6150234332395
 20
37.99075987826653
 11
100.655622036811
 21
38.06564248282831
  0
LINE
  5
1D5
100
AcDbEntity
  8
0
  6
ByLayer
 62
    7
370
   -1
100
AcDbLine
 10
100.655622036811
 20
38.06564248282831
 11
99.69470963048022
 21
38.12870464228923
  0
LINE
  5
1D6
100
AcDbEntity
  8
0
  6
ByLayer
 62
    7
370
   -1
100
AcDbLine
 10
99.69470963048022
 20
38.12870464228923
 11
98.73253160419713
 21
38.17976866271485
  0
LINE
  5
1D7
100
AcDbEntity
  8
0
  6
ByLayer
 62
    7
370
   -1
100
AcDbLine
 10
98.73253160419713
 20
38.17976866271485
 11
97.76933334791165
 21
38.2186568501708
  0
LINE
  5
1D8
100
AcDbEntity
  8
0
  6
ByLayer
 62
    7
370
   -1
100
AcDbLine
 10
97.76933334791165
 20
38.2186568501708
 11
96.80536025157386
 21
38.24519151072264
  0
LINE
  5
1D9
100
AcDbEntity
  8
0
  6
ByLayer
 62
    7
370
   -1
100
AcDbLine
 10
96.80536025157386
 20
38.24519151072264
 11
95.84085770513364
 21
38.25919495043597
  0
LINE
  5
1DA
100
AcDbEntity
  8
0
  6
ByLayer
 62
    7
370
   -1
100
AcDbLine
 10
95.84085770513364
 20
38.25919495043597
 11
94.87607109854105
 21
38.2604894753764
  0
LINE
  5
1DB
100
AcDbEntity
  8
0
  6
ByLayer
 62
    7
370
   -1
100
AcDbLine
 10
94.87607109854105
 20
38.2604894753764
 11
93.91124582174604
 21
38.24889739160947
  0
LINE
  5
1DC
100
AcDbEntity
  8
0
  6
ByLayer
 62
    7
370
   -1
100
AcDbLine
 10
93.91124582174604
 20
38.24889739160947
 11
92.94662726469861
 21
38.22424100520083
  0
LINE
  5
1DD
100
AcDbEntity
  8
0
  6
ByLayer
 62
    7
370
   -1
100
AcDbLine
 10
92.94662726469861
 20
38.22424100520083
 11
91.98246081734875
 21
38.18634262221604
  0
LINE
  5
1DE
100
AcDbEntity
  8
0
  6
ByLayer
 62
    7
370
   -1
100
AcDbLine
 10
91.98246081734875
 20
38.18634262221604
 11
91.01899186964643
 21
38.13502454872069
  0
LINE
  5
1DF
100
AcDbEntity
  8
0
  6
ByLayer
 62
    7
370
   -1
100
AcDbLine
 10
91.01899186964643
 20
38.13502454872069
 11
90.05646581154163
 21
38.07010909078037
  0
LINE
  5
1E0
100
AcDbEntity
  8
0
  6
ByLayer
 62
    7
370
   -1
100
AcDbLine
 10
90.05646581154163
 20
38.07010909078037
 11
89.09512803298436
 21
37.99141855446069
  0
LINE
  5
1E1
100
AcDbEntity
  8
0
  6
ByLayer
 62
    7
370
   -1
100
AcDbLine
 10
89.09512803298436
 20
37.99141855446069
 11
88.13522392392457
 21
37.8987752458272
  0
LINE
  5
1E2
100
AcDbEntity
  8
0
  6
ByLayer
 62
    7
370
   -1
100
AcDbLine
 10
88.13522392392457
 20
37.8987752458272
 11
87.17699887431226
 21
37.79200147094552
  0
LINE
  5
1E3
100
AcDbEntity
  8
0
  6
ByLayer
 62
    7
370
   -1
100
AcDbLine
 10
87.17699887431226
 20
37.79200147094552
 11
86.22069827409744
 21
37.67091953588125
  0
LINE
  5
1E4
100
AcDbEntity
  8
0
  6
ByLayer
 62
    7
370
   -1
100
AcDbLine
 10
86.22069827409744
 20
37.67091953588125
 11
85.26656751323007
 21
37.53535174669994
  0
LINE
  5
1E5
100
AcDbEntity
  8
0
  6
ByLayer
 62
    7
370
   -1
100
AcDbLine
 10
85.26656751323007
 20
37.53535174669994
 11
84.31485198166013
 21
37.38512040946723
  0
LINE
  5
1E6
100
AcDbEntity
  8
0
  6
ByLayer
 62
    7
370
   -1
100
AcDbLine
 10
84.31485198166013
 20
37.38512040946723
 11
83.36579706933762
 21
37.22004783024867
  0
LINE
  5
1E7
100
AcDbEntity
  8
0
  6
ByLayer
 62
    7
370
   -1
100
AcDbLine
 10
83.36579706933762
 20
37.22004783024867
 11
82.41964816621251
 21
37.03995631510988
  0
LINE
  5
1E8
100
AcDbEntity
  8
0
  6
ByLayer
 62
    7
370
   -1
100
AcDbLine
 10
82.41964816621251
 20
37.03995631510988
 11
81.4766506622348
 21
36.84466817011642
  0
LINE
  5
1E9
100
AcDbEntity
  8
0
  6
ByLayer
 62
    7
370
   -1
100
AcDbLine
 10
81.4766506622348
 20
36.84466817011642
 11
80.53704994735446
 21
36.6340057013339
  0
LINE
  5
1EA
100
AcDbEntity
  8
0
  6
ByLayer
 62
    7
370
   -1
100
AcDbLine
 10
80.53704994735446
 20
36.6340057013339
 11
79.60109141152151
 21
36.40779121482791
  0
LINE
  5
1EB
100
AcDbEntity
  8
0
  6
ByLayer
 62
    7
370
   -1
100
AcDbLine
 10
79.60109141152151
 20
36.40779121482791
 11
78.66902044468588
 21
36.16584701666403
  0
LINE
  5
1EC
100
AcDbEntity
  8
0
  6
ByLayer
 62
    7
370
   -1
100
AcDbLine
 10
78.66902044468588
 20
36.16584701666403
 11
77.7410824367976
 21
35.90799541290787
  0
LINE
  5
1ED
100
AcDbEntity
  8
0
  6
ByLayer
 62
    7
370
   -1
100
AcDbLine
 10
77.7410824367976
 20
35.90799541290787
 11
76.81752277780663
 21
35.63405870962499
  0
LINE
  5
1EE
100
AcDbEntity
  8
0
  6
ByLayer
 62
    7
370
   -1
100
AcDbLine
 10
76.81752277780663
 20
35.63405870962499
 11
75.89858685766296
 21
35.34385921288101
  0
LINE
  5
1EF
100
AcDbEntity
  8
0
  6
ByLayer
 62
    7
370
   -1
100
AcDbLine
 10
75.89858685766296
 20
35.34385921288101
 11
74.98452006631658
 21
35.03721922874151
  0
LINE
  5
1F0
100
AcDbEntity
  8
0
  6
ByLayer
 62
    7
370
   -1
100
AcDbLine
 10
74.98452006631658
 20
35.03721922874151
 11
74.07556779371747
 21
34.71396106327207
  0
LINE
  5
1F1
100
AcDbEntity
  8
0
  6
ByLayer
 62
    7
370
   -1
100
AcDbLine
 10
74.07556779371747
 20
34.71396106327207
 11
73.1719754298156
 21
34.37390702253829
  0
LINE
  5
1F2
100
AcDbEntity
  8
0
  6
ByLayer
 62
    7
370
   -1
100
AcDbLine
 10
69.0248109298156
 20
6.807556022538293
 11
69.2632115144049
 21
6.281187650714588
  0
LINE
  5
1F3
100
AcDbEntity
  8
0
  6
ByLayer
 62
    7
370
   -1
100
AcDbLine
 10
69.2632115144049
 20
6.281187650714588
 11
69.51323875533339
 21
5.757568765950734
  0
LINE
  5
1F4
100
AcDbEntity
  8
0
  6
ByLayer
 62
    7
370
   -1
100
AcDbLine
 10
69.51323875533339
 20
5.757568765950734
 11
69.77486778656764
 21
5.237370311081814
  0
LINE
  5
1F5
100
AcDbEntity
  8
0
  6
ByLayer
 62
    7
370
   -1
100
AcDbLine
 10
69.77486778656764
 20
5.237370311081814
 11
70.04807374207434
 21
4.721263228942912
  0
LINE
  5
1F6
100
AcDbEntity
  8
0
  6
ByLayer
 62
    7
370
   -1
100
AcDbLine
 10
70.04807374207434
 20
4.721263228942912
 11
70.33283175582011
 21
4.209918462369114
  0
LINE
  5
1F7
100
AcDbEntity
  8
0
  6
ByLayer
 62
    7
370
   -1
100
AcDbLine
 10
70.33283175582011
 20
4.209918462369114
 11
70.62911696177156
 21
3.704006954195505
  0
LINE
  5
1F8
100
AcDbEntity
  8
0
  6
ByLayer
 62
    7
370
   -1
100
AcDbLine
 10
70.62911696177156
 20
3.704006954195505
 11
70.93690449389537
 21
3.204199647257168
  0
LINE
  5
1F9
100
AcDbEntity
  8
0
  6
ByLayer
 62
    7
370
   -1
100
AcDbLine
 10
70.93690449389537
 20
3.204199647257168
 11
71.25616948615813
 21
2.711167484389188
  0
LINE
  5
1FA
100
AcDbEntity
  8
0
  6
ByLayer
 62
    7
370
   -1
100
AcDbLine
 10
71.25616948615813
 20
2.711167484389188
 11
71.58688707252648
 21
2.225581408426649
  0
LINE
  5
1FB
100
AcDbEntity
  8
0
  6
ByLayer
 62
    7
370
   -1
100
AcDbLine
 10
71.58688707252648
 20
2.225581408426649
 11
71.92903238696707
 21
1.748112362204636
  0
LINE
  5
1FC
100
AcDbEntity
  8
0
  6
ByLayer
 62
    7
370
   -1
100
AcDbLine
 10
71.92903238696707
 20
1.748112362204636
 11
72.28258056344657
 21
1.279431288558234
  0
LINE
  5
1FD
100
AcDbEntity
  8
0
  6
ByLayer
 62
    7
370
   -1
100
AcDbLine
 10
72.28258056344657
 20
1.279431288558234
 11
72.64750673593154
 21
0.8202091303225246
  0
LINE
  5
1FE
100
AcDbEntity
  8
0
  6
ByLayer
 62
    7
370
   -1
100
AcDbLine
 10
72.64750673593154
 20
0.8202091303225246
 11
73.02378603838866
 21
0.3711168303325954
  0
LINE
  5
1FF
100
AcDbEntity
  8
0
  6
ByLayer
 62
    7
370
   -1
100
AcDbLine
 10
73.02378603838866
 20
0.3711168303325954
 11
73.41139360478455
 21
-0.06717466857647092
  0
LINE
  5
200
100
AcDbEntity
  8
0
  6
ByLayer
 62
    7
370
   -1
100
AcDbLine
 10
73.41139360478455
 20
-0.06717466857647092
 11
73.81030456908584
 21
-0.4939944235695891
  0
LINE
  5
201
100
AcDbEntity
  8
0
  6
ByLayer
 62
    7
370
   -1
100
AcDbLine
 10
73.81030456908584
 20
-0.4939944235695891
 11
74.22049406525919
 21
-0.9086714918116753
  0
LINE
  5
202
100
AcDbEntity
  8
0
  6
ByLayer
 62
    7
370
   -1
100
AcDbLine
 10
74.22049406525919
 20
-0.9086714918116753
 11
74.6419372272712
 21
-1.310534930467645
  0
LINE
  5
203
100
AcDbEntity
  8
0
  6
ByLayer
 62
    7
370
   -1
100
AcDbLine
 10
74.6419372272712
 20
-1.310534930467645
 11
75.07460918908853
 21
-1.698913796702414
  0
LINE
  5
204
100
AcDbEntity
  8
0
  6
ByLayer
 62
    7
370
   -1
100
AcDbLine
 10
75.07460918908853
 20
-1.698913796702414
 11
75.51848508467781
 21
-2.073137147680897
  0
LINE
  5
205
100
AcDbEntity
  8
0
  6
ByLayer
 62
    7
370
   -1
100
AcDbLine
 10
75.51848508467781
 20
-2.073137147680897
 11
75.97354004800565
 21
-2.43253404056801
  0
LINE
  5
206
100
AcDbEntity
  8
0
  6
ByLayer
 62
    7
370
   -1
100
AcDbLine
 10
75.97354004800565
 20
-2.43253404056801
 11
76.43974921303872
 21
-2.776433532528669
  0
LINE
  5
207
100
AcDbEntity
  8
0
  6
ByLayer
 62
    7
370
   -1
100
AcDbLine
 10
76.43974921303872
 20
-2.776433532528669
 11
76.91708771374364
 21
-3.104164680727789
  0
LINE
  5
208
100
AcDbEntity
  8
0
  6
ByLayer
 62
    7
370
   -1
100
AcDbLine
 10
76.91708771374364
 20
-3.104164680727789
 11
77.40553068408703
 21
-3.415056542330286
  0
LINE
  5
209
100
AcDbEntity
  8
0
  6
ByLayer
 62
    7
370
   -1
100
AcDbLine
 10
77.40553068408703
 20
-3.415056542330286
 11
77.90505325803554
 21
-3.708438174501076
  0
LINE
  5
20A
100
AcDbEntity
  8
0
  6
ByLayer
 62
    7
370
   -1
100
AcDbLine
 10
77.90505325803554
 20
-3.708438174501076
 11
78.41563056955579
 21
-3.983638634405073
  0
LINE
  5
20B
100
AcDbEntity
  8
0
  6
ByLayer
 62
    7
370
   -1
100
AcDbLine
 10
78.41563056955579
 20
-3.983638634405073
 11
78.93723775261442
 21
-4.239986979207194
  0
LINE
  5
20C
100
AcDbEntity
  8
0
  6
ByLayer
 62
    7
370
   -1
100
AcDbLine
 10
78.93723775261442
 20
-4.239986979207194
 11
79.46984994117808
 21
-4.476812266072354
  0
LINE
  5
20D
100
AcDbEntity
  8
0
  6
ByLayer
 62
    7
370
   -1
100
AcDbLine
 10
79.46984994117808
 20
-4.476812266072354
 11
80.0134422692134
 21
-4.693443552165469
  0
LINE
  5
20E
100
AcDbEntity
  8
0
  6
ByLayer
 62
    7
370
   -1
100
AcDbLine
 10
80.0134422692134
 20
-4.693443552165469
 11
80.56798987068699
 21
-4.889209894651454
  0
LINE
  5
20F
100
AcDbEntity
  8
0
  6
ByLayer
 62
    7
370
   -1
100
AcDbLine
 10
80.56798987068699
 20
-4.889209894651454
 11
81.13346787956552
 21
-5.063440350695225
  0
LINE
  5
210
100
AcDbEntity
  8
0
  6
ByLayer
 62
    7
370
   -1
100
AcDbLine
 10
81.13346787956552
 20
-5.063440350695225
 11
81.7098514298156
 21
-5.215463977461701
  0
LINE
  5
211
100
AcDbEntity
  8
0
  6
ByLayer
 62
    7
370
   -1
100
AcDbLine
 10
81.7098514298156
 20
-5.215463977461701
 11
82.62479212272622
 21
-5.495042023482311
  0
LINE
  5
212
100
AcDbEntity
  8
0
  6
ByLayer
 62
    7
370
   -1
100
AcDbLine
 10
82.62479212272622
 20
-5.495042023482311
 11
83.54514891378729
 21
-5.758931450725439
  0
LINE
  5
213
100
AcDbEntity
  8
0
  6
ByLayer
 62
    7
370
   -1
100
AcDbLine
 10
83.54514891378729
 20
-5.758931450725439
 11
84.47057356504099
 21
-6.006993483285608
  0
LINE
  5
214
100
AcDbEntity
  8
0
  6
ByLayer
 62
    7
370
   -1
100
AcDbLine
 10
84.47057356504099
 20
-6.006993483285608
 11
85.40071783852966
 21
-6.239089345257344
  0
LINE
  5
215
100
AcDbEntity
  8
0
  6
ByLayer
 62
    7
370
   -1
100
AcDbLine
 10
85.40071783852966
 20
-6.239089345257344
 11
86.3352334962954
 21
-6.455080260735173
  0
LINE
  5
216
100
AcDbEntity
  8
0
  6
ByLayer
 62
    7
370
   -1
100
AcDbLine
 10
86.3352334962954
 20
-6.455080260735173
 11
87.27377230038054
 21
-6.654827453813621
  0
LINE
  5
217
100
AcDbEntity
  8
0
  6
ByLayer
 62
    7
370
   -1
100
AcDbLine
 10
87.27377230038054
 20
-6.654827453813621
 11
88.21598601282724
 21
-6.838192148587209
  0
LINE
  5
218
100
AcDbEntity
  8
0
  6
ByLayer
 62
    7
370
   -1
100
AcDbLine
 10
88.21598601282724
 20
-6.838192148587209
 11
89.16152639567777
 21
-7.005035569150467
  0
LINE
  5
219
100
AcDbEntity
  8
0
  6
ByLayer
 62
    7
370
   -1
100
AcDbLine
 10
89.16152639567777
 20
-7.005035569150467
 11
90.11004521097433
 21
-7.155218939597916
  0
LINE
  5
21A
100
AcDbEntity
  8
0
  6
ByLayer
 62
    7
370
   -1
100
AcDbLine
 10
90.11004521097433
 20
-7.155218939597916
 11
91.06119422075915
 21
-7.288603484024085
  0
LINE
  5
21B
100
AcDbEntity
  8
0
  6
ByLayer
 62
    7
370
   -1
100
AcDbLine
 10
91.06119422075915
 20
-7.288603484024085
 11
92.0146251870745
 21
-7.405050426523498
  0
LINE
  5
21C
100
AcDbEntity
  8
0
  6
ByLayer
 62
    7
370
   -1
100
AcDbLine
 10
92.0146251870745
 20
-7.405050426523498
 11
92.96998987196255
 21
-7.50442099119068
  0
LINE
  5
21D
100
AcDbEntity
  8
0
  6
ByLayer
 62
    7
370
   -1
100
AcDbLine
 10
92.96998987196255
 20
-7.50442099119068
 11
93.92694003746556
 21
-7.586576402120156
  0
LINE
  5
21E
100
AcDbEntity
  8
0
  6
ByLayer
 62
    7
370
   -1
100
AcDbLine
 10
93.92694003746556
 20
-7.586576402120156
 11
94.88512744562573
 21
-7.651377883406451
  0
LINE
  5
21F
100
AcDbEntity
  8
0
  6
ByLayer
 62
    7
370
   -1
100
AcDbLine
 10
94.88512744562573
 20
-7.651377883406451
 11
95.84420385848533
 21
-7.69868665914409
  0
LINE
  5
220
100
AcDbEntity
  8
0
  6
ByLayer
 62
    7
370
   -1
100
AcDbLine
 10
95.84420385848533
 20
-7.69868665914409
 11
96.80382103808654
 21
-7.728363953427598
  0
LINE
  5
221
100
AcDbEntity
  8
0
  6
ByLayer
 62
    7
370
   -1
100
AcDbLine
 10
96.80382103808654
 20
-7.728363953427598
 11
97.76363074647162
 21
-7.740270990351501
  0
LINE
  5
222
100
AcDbEntity
  8
0
  6
ByLayer
 62
    7
370
   -1
100
AcDbLine
 10
97.76363074647162
 20
-7.740270990351501
 11
98.7232847456828
 21
-7.734268994010325
  0
LINE
  5
223
100
AcDbEntity
  8
0
  6
ByLayer
 62
    7
370
   -1
100
AcDbLine
 10
98.7232847456828
 20
-7.734268994010325
 11
99.68243479776228
 21
-7.710219188498594
  0
LINE
  5
224
100
AcDbEntity
  8
0
  6
ByLayer
 62
    7
370
   -1
100
AcDbLine
 10
99.68243479776228
 20
-7.710219188498594
 11
100.6407326647523
 21
-7.667982797910833
  0
LINE
  5
225
100
AcDbEntity
  8
0
  6
ByLayer
 62
    7
370
   -1
100
AcDbLine
 10
100.6407326647523
 20
-7.667982797910833
 11
101.5978301086951
 21
-7.607421046341567
  0
LINE
  5
226
100
AcDbEntity
  8
0
  6
ByLayer
 62
    7
370
   -1
100
AcDbLine
 10
101.5978301086951
 20
-7.607421046341567
 11
102.5533788916329
 21
-7.528395157885322
  0
LINE
  5
227
100
AcDbEntity
  8
0
  6
ByLayer
 62
    7
370
   -1
100
AcDbLine
 10
102.5533788916329
 20
-7.528395157885322
 11
103.5070307756079
 21
-7.430766356636623
  0
LINE
  5
228
100
AcDbEntity
  8
0
  6
ByLayer
 62
    7
370
   -1
100
AcDbLine
 10
103.5070307756079
 20
-7.430766356636623
 11
104.4584375226624
 21
-7.314395866689995
  0
LINE
  5
229
100
AcDbEntity
  8
0
  6
ByLayer
 62
    7
370
   -1
100
AcDbLine
 10
104.4584375226624
 20
-7.314395866689995
 11
105.4072508948386
 21
-7.179144912139963
  0
LINE
  5
22A
100
AcDbEntity
  8
0
  6
ByLayer
 62
    7
370
   -1
100
AcDbLine
 10
105.4072508948386
 20
-7.179144912139963
 11
106.3531226541786
 21
-7.024874717081053
  0
LINE
  5
22B
100
AcDbEntity
  8
0
  6
ByLayer
 62
    7
370
   -1
100
AcDbLine
 10
106.3531226541786
 20
-7.024874717081053
 11
107.2957045627249
 21
-6.85144650560779
  0
LINE
  5
22C
100
AcDbEntity
  8
0
  6
ByLayer
 62
    7
370
   -1
100
AcDbLine
 10
107.2957045627249
 20
-6.85144650560779
 11
108.2346483825194
 21
-6.658721501814698
  0
LINE
  5
22D
100
AcDbEntity
  8
0
  6
ByLayer
 62
    7
370
   -1
100
AcDbLine
 10
108.2346483825194
 20
-6.658721501814698
 11
109.1696058756046
 21
-6.446560929796304
  0
LINE
  5
22E
100
AcDbEntity
  8
0
  6
ByLayer
 62
    7
370
   -1
100
AcDbLine
 10
109.1696058756046
 20
-6.446560929796304
 11
110.1002288040225
 21
-6.214826013647133
  0
LINE
  5
22F
100
AcDbEntity
  8
0
  6
ByLayer
 62
    7
370
   -1
100
AcDbLine
 10
110.1002288040225
 20
-6.214826013647133
 11
111.0261689298156
 21
-5.963377977461702
  0
LINE
  5
230
100
AcDbEntity
  8
0
  6
ByLayer
 62
    7
370
   -1
100
AcDbLine
 10
111.0261689298156
 20
-5.963377977461702
 11
111.4492068381436
 21
-5.834065586857158
  0
LINE
  5
231
100
AcDbEntity
  8
0
  6
ByLayer
 62
    7
370
   -1
100
AcDbLine
 10
111.4492068381436
 20
-5.834065586857158
 11
111.8689033639736
 21
-5.693849614331898
  0
LINE
  5
232
100
AcDbEntity
  8
0
  6
ByLayer
 62
    7
370
   -1
100
AcDbLine
 10
111.8689033639736
 20
-5.693849614331898
 11
112.2849239021227
 21
-5.542833665270101
  0
LINE
  5
233
100
AcDbEntity
  8
0
  6
ByLayer
 62
    7
370
   -1
100
AcDbLine
 10
112.2849239021227
 20
-5.542833665270101
 11
112.6969338474082
 21
-5.381121345055942
  0
LINE
  5
234
100
AcDbEntity
  8
0
  6
ByLayer
 62
    7
370
   -1
100
AcDbLine
 10
112.6969338474082
 20
-5.381121345055942
 11
113.1045985946473
 21
-5.208816259073597
  0
LINE
  5
235
100
AcDbEntity
  8
0
  6
ByLayer
 62
    7
370
   -1
100
AcDbLine
 10
113.1045985946473
 20
-5.208816259073597
 11
113.5075835386572
 21
-5.026022012707245
  0
LINE
  5
236
100
AcDbEntity
  8
0
  6
ByLayer
 62
    7
370
   -1
100
AcDbLine
 10
113.5075835386572
 20
-5.026022012707245
 11
113.9055540742552
 21
-4.832842211341061
  0
LINE
  5
237
100
AcDbEntity
  8
0
  6
ByLayer
 62
    7
370
   -1
100
AcDbLine
 10
113.9055540742552
 20
-4.832842211341061
 11
114.2981755962585
 21
-4.62938046035922
  0
LINE
  5
238
100
AcDbEntity
  8
0
  6
ByLayer
 62
    7
370
   -1
100
AcDbLine
 10
114.2981755962585
 20
-4.62938046035922
 11
114.6851134994843
 21
-4.4157403651459
  0
LINE
  5
239
100
AcDbEntity
  8
0
  6
ByLayer
 62
    7
370
   -1
100
AcDbLine
 10
114.6851134994843
 20
-4.4157403651459
 11
115.0660331787498
 21
-4.192025531085277
  0
LINE
  5
23A
100
AcDbEntity
  8
0
  6
ByLayer
 62
    7
370
   -1
100
AcDbLine
 10
115.0660331787498
 20
-4.192025531085277
 11
115.4406000288724
 21
-3.958339563561529
  0
LINE
  5
23B
100
AcDbEntity
  8
0
  6
ByLayer
 62
    7
370
   -1
100
AcDbLine
 10
115.4406000288724
 20
-3.958339563561529
 11
115.8084794446691
 21
-3.714786067958831
  0
LINE
  5
23C
100
AcDbEntity
  8
0
  6
ByLayer
 62
    7
370
   -1
100
AcDbLine
 10
115.8084794446691
 20
-3.714786067958831
 11
116.1693368209572
 21
-3.461468649661358
  0
LINE
  5
23D
100
AcDbEntity
  8
0
  6
ByLayer
 62
    7
370
   -1
100
AcDbLine
 10
116.1693368209572
 20
-3.461468649661358
 11
116.522837552554
 21
-3.198490914053288
  0
LINE
  5
23E
100
AcDbEntity
  8
0
  6
ByLayer
 62
    7
370
   -1
100
AcDbLine
 10
116.522837552554
 20
-3.198490914053288
 11
116.8686470342767
 21
-2.925956466518798
  0
LINE
  5
23F
100
AcDbEntity
  8
0
  6
ByLayer
 62
    7
370
   -1
100
AcDbLine
 10
116.8686470342767
 20
-2.925956466518798
 11
117.2064306609424
 21
-2.643968912442064
  0
LINE
  5
240
100
AcDbEntity
  8
0
  6
ByLayer
 62
    7
370
   -1
100
AcDbLine
 10
117.2064306609424
 20
-2.643968912442064
 11
117.5358538273686
 21
-2.352631857207262
  0
LINE
  5
241
100
AcDbEntity
  8
0
  6
ByLayer
 62
    7
370
   -1
100
AcDbLine
 10
117.5358538273686
 20
-2.352631857207262
 11
117.8565819283722
 21
-2.052048906198568
  0
LINE
  5
242
100
AcDbEntity
  8
0
  6
ByLayer
 62
    7
370
   -1
100
AcDbLine
 10
117.8565819283722
 20
-2.052048906198568
 11
118.1682803587706
 21
-1.742323664800159
  0
LINE
  5
243
100
AcDbEntity
  8
0
  6
ByLayer
 62
    7
370
   -1
100
AcDbLine
 10
118.1682803587706
 20
-1.742323664800159
 11
118.4706145133811
 21
-1.423559738396212
  0
LINE
  5
244
100
AcDbEntity
  8
0
  6
ByLayer
 62
    7
370
   -1
100
AcDbLine
 10
118.4706145133811
 20
-1.423559738396212
 11
118.7632497870208
 21
-1.095860732370903
  0
LINE
  5
245
100
AcDbEntity
  8
0
  6
ByLayer
 62
    7
370
   -1
100
AcDbLine
 10
118.7632497870208
 20
-1.095860732370903
 11
119.0458515745069
 21
-0.7593302521084083
  0
LINE
  5
246
100
AcDbEntity
  8
0
  6
ByLayer
 62
    7
370
   -1
100
AcDbLine
 10
119.0458515745069
 20
-0.7593302521084083
 11
119.3180852706568
 21
-0.4140719029929041
  0
LINE
  5
247
100
AcDbEntity
  8
0
  6
ByLayer
 62
    7
370
   -1
100
AcDbLine
 10
119.3180852706568
 20
-0.4140719029929041
 11
119.5796162702875
 21
-0.06018929040856702
  0
LINE
  5
248
100
AcDbEntity
  8
0
  6
ByLayer
 62
    7
370
   -1
100
AcDbLine
 10
119.5796162702875
 20
-0.06018929040856702
 11
119.8301099682164
 21
0.302213980260426
  0
LINE
  5
249
100
AcDbEntity
  8
0
  6
ByLayer
 62
    7
370
   -1
100
AcDbLine
 10
119.8301099682164
 20
0.302213980260426
 11
120.0692317592607
 21
0.6730343036298991
  0
LINE
  5
24A
100
AcDbEntity
  8
0
  6
ByLayer
 62
    7
370
   -1
100
AcDbLine
 10
120.0692317592607
 20
0.6730343036298991
 11
120.2966470382376
 21
1.052168074315676
  0
LINE
  5
24B
100
AcDbEntity
  8
0
  6
ByLayer
 62
    7
370
   -1
100
AcDbLine
 10
120.2966470382376
 20
1.052168074315676
 11
120.5120211999643
 21
1.43951168693358
  0
LINE
  5
24C
100
AcDbEntity
  8
0
  6
ByLayer
 62
    7
370
   -1
100
AcDbLine
 10
120.5120211999643
 20
1.43951168693358
 11
120.715019639258
 21
1.834961536099434
  0
LINE
  5
24D
100
AcDbEntity
  8
0
  6
ByLayer
 62
    7
370
   -1
100
AcDbLine
 10
120.715019639258
 20
1.834961536099434
 11
120.9053077509361
 21
2.238414016429062
  0
LINE
  5
24E
100
AcDbEntity
  8
0
  6
ByLayer
 62
    7
370
   -1
100
AcDbLine
 10
120.9053077509361
 20
2.238414016429062
 11
121.0825509298156
 21
2.649765522538297
  0
LINE
  5
24F
100
AcDbEntity
  8
0
  6
ByLayer
 62
    7
370
   -1
100
AcDbLine
 10
121.0825509298156
 20
2.649765522538297
 11
121.3823505857184
 21
3.275909778924454
  0
LINE
  5
250
100
AcDbEntity
  8
0
  6
ByLayer
 62
    7
370
   -1
100
AcDbLine
 10
121.3823505857184
 20
3.275909778924454
 11
121.6682893851545
 21
3.90719370265981
  0
LINE
  5
251
100
AcDbEntity
  8
0
  6
ByLayer
 62
    7
370
   -1
100
AcDbLine
 10
121.6682893851545
 20
3.90719370265981
 11
121.9405825434573
 21
4.543406122383887
  0
LINE
  5
252
100
AcDbEntity
  8
0
  6
ByLayer
 62
    7
370
   -1
100
AcDbLine
 10
121.9405825434573
 20
4.543406122383887
 11
122.1994452759604
 21
5.184335866736208
  0
LINE
  5
253
100
AcDbEntity
  8
0
  6
ByLayer
 62
    7
370
   -1
100
AcDbLine
 10
122.1994452759604
 20
5.184335866736208
 11
122.4450927979973
 21
5.829771764356294
  0
LINE
  5
254
100
AcDbEntity
  8
0
  6
ByLayer
 62
    7
370
   -1
100
AcDbLine
 10
122.4450927979973
 20
5.829771764356294
 11
122.6777403249014
 21
6.479502643883668
  0
LINE
  5
255
100
AcDbEntity
  8
0
  6
ByLayer
 62
    7
370
   -1
100
AcDbLine
 10
122.6777403249014
 20
6.479502643883668
 11
122.8976030720062
 21
7.13331733395785
  0
LINE
  5
256
100
AcDbEntity
  8
0
  6
ByLayer
 62
    7
370
   -1
100
AcDbLine
 10
122.8976030720062
 20
7.13331733395785
 11
123.1048962546452
 21
7.791004663218366
  0
LINE
  5
257
100
AcDbEntity
  8
0
  6
ByLayer
 62
    7
370
   -1
100
AcDbLine
 10
123.1048962546452
 20
7.791004663218366
 11
123.299835088152
 21
8.452353460304732
  0
LINE
  5
258
100
AcDbEntity
  8
0
  6
ByLayer
 62
    7
370
   -1
100
AcDbLine
 10
123.299835088152
 20
8.452353460304732
 11
123.48263478786
 21
9.117152553856474
  0
LINE
  5
259
100
AcDbEntity
  8
0
  6
ByLayer
 62
    7
370
   -1
100
AcDbLine
 10
123.48263478786
 20
9.117152553856474
 11
123.6535105691026
 21
9.785190772513117
  0
LINE
  5
25A
100
AcDbEntity
  8
0
  6
ByLayer
 62
    7
370
   -1
100
AcDbLine
 10
123.6535105691026
 20
9.785190772513117
 11
123.8126776472135
 21
10.45625694491418
  0
LINE
  5
25B
100
AcDbEntity
  8
0
  6
ByLayer
 62
    7
370
   -1
100
AcDbLine
 10
123.8126776472135
 20
10.45625694491418
 11
123.960351237526
 21
11.13013989969918
  0
LINE
  5
25C
100
AcDbEntity
  8
0
  6
ByLayer
 62
    7
370
   -1
100
AcDbLine
 10
123.960351237526
 20
11.13013989969918
 11
124.0967465553736
 21
11.80662846550764
  0
LINE
  5
25D
100
AcDbEntity
  8
0
  6
ByLayer
 62
    7
370
   -1
100
AcDbLine
 10
124.0967465553736
 20
11.80662846550764
 11
124.22207881609
 21
12.48551147097909
  0
LINE
  5
25E
100
AcDbEntity
  8
0
  6
ByLayer
 62
    7
370
   -1
100
AcDbLine
 10
124.22207881609
 20
12.48551147097909
 11
124.3365632350084
 21
13.16657774475305
  0
LINE
  5
25F
100
AcDbEntity
  8
0
  6
ByLayer
 62
    7
370
   -1
100
AcDbLine
 10
124.3365632350084
 20
13.16657774475305
 11
124.4404150274625
 21
13.84961611546904
  0
LINE
  5
260
100
AcDbEntity
  8
0
  6
ByLayer
 62
    7
370
   -1
100
AcDbLine
 10
124.4404150274625
 20
13.84961611546904
 11
124.5338494087858
 21
14.53441541176658
  0
LINE
  5
261
100
AcDbEntity
  8
0
  6
ByLayer
 62
    7
370
   -1
100
AcDbLine
 10
124.5338494087858
 20
14.53441541176658
 11
124.6170815943116
 21
15.22076446228519
  0
LINE
  5
262
100
AcDbEntity
  8
0
  6
ByLayer
 62
    7
370
   -1
100
AcDbLine
 10
124.6170815943116
 20
15.22076446228519
 11
124.6903267993735
 21
15.9084520956644
  0
LINE
  5
263
100
AcDbEntity
  8
0
  6
ByLayer
 62
    7
370
   -1
100
AcDbLine
 10
124.6903267993735
 20
15.9084520956644
 11
124.7538002393051
 21
16.59726714054372
  0
LINE
  5
264
100
AcDbEntity
  8
0
  6
ByLayer
 62
    7
370
   -1
100
AcDbLine
 10
124.7538002393051
 20
16.59726714054372
 11
124.8077171294397
 21
17.28699842556269
  0
LINE
  5
265
100
AcDbEntity
  8
0
  6
ByLayer
 62
    7
370
   -1
100
AcDbLine
 10
124.8077171294397
 20
17.28699842556269
 11
124.8522926851108
 21
17.97743477936082
  0
LINE
  5
266
100
AcDbEntity
  8
0
  6
ByLayer
 62
    7
370
   -1
100
AcDbLine
 10
124.8522926851108
 20
17.97743477936082
 11
124.8877421216521
 21
18.66836503057763
  0
LINE
  5
267
100
AcDbEntity
  8
0
  6
ByLayer
 62
    7
370
   -1
100
AcDbLine
 10
124.8877421216521
 20
18.66836503057763
 11
124.9142806543968
 21
19.35957800785264
  0
LINE
  5
268
100
AcDbEntity
  8
0
  6
ByLayer
 62
    7
370
   -1
100
AcDbLine
 10
124.9142806543968
 20
19.35957800785264
 11
124.9321234986787
 21
20.05086253982538
  0
LINE
  5
269
100
AcDbEntity
  8
0
  6
ByLayer
 62
    7
370
   -1
100
AcDbLine
 10
124.9321234986787
 20
20.05086253982538
 11
124.941485869831
 21
20.74200745513538
  0
LINE
  5
26A
100
AcDbEntity
  8
0
  6
ByLayer
 62
    7
370
   -1
100
AcDbLine
 10
124.941485869831
 20
20.74200745513538
 11
124.9425829831874
 21
21.43280158242214
  0
LINE
  5
26B
100
AcDbEntity
  8
0
  6
ByLayer
 62
    7
370
   -1
100
AcDbLine
 10
124.9425829831874
 20
21.43280158242214
 11
124.9356300540813
 21
22.1230337503252
  0
LINE
  5
26C
100
AcDbEntity
  8
0
  6
ByLayer
 62
    7
370
   -1
100
AcDbLine
 10
124.9356300540813
 20
22.1230337503252
 11
124.9208422978462
 21
22.81249278748408
  0
LINE
  5
26D
100
AcDbEntity
  8
0
  6
ByLayer
 62
    7
370
   -1
100
AcDbLine
 10
124.9208422978462
 20
22.81249278748408
 11
124.8984349298156
 21
23.5009675225383
  0
LINE
  5
26E
100
AcDbEntity
  8
0
  6
ByLayer
 62
    7
370
   -1
100
AcDbLine
 10
124.8984349298156
 20
23.5009675225383
 11
124.8984349298156
 21
23.5009675225383
  0
LINE
  5
26F
100
AcDbEntity
  8
0
  6
ByLayer
 62
    7
370
   -1
100
AcDbLine
 10
75.96451075002551
 20
31.86941475002551
 11
75.67391524735694
 21
31.73997156147864
  0
LINE
  5
270
100
AcDbEntity
  8
0
  6
ByLayer
 62
    7
370
   -1
100
AcDbLine
 10
75.67391524735694
 20
31.73997156147864
 11
75.37948375261018
 21
31.60931411157767
  0
LINE
  5
271
100
AcDbEntity
  8
0
  6
ByLayer
 62
    7
370
   -1
100
AcDbLine
 10
75.37948375261018
 20
31.60931411157767
 11
75.08194814051258
 21
31.47704928360949
  0
LINE
  5
272
100
AcDbEntity
  8
0
  6
ByLayer
 62
    7
370
   -1
100
AcDbLine
 10
75.08194814051258
 20
31.47704928360949
 11
74.78204028579135
 21
31.342783960861
  0
LINE
  5
273
100
AcDbEntity
  8
0
  6
ByLayer
 62
    7
370
   -1
100
AcDbLine
 10
74.78204028579135
 20
31.342783960861
 11
74.48049206317378
 21
31.20612502661912
  0
LINE
  5
274
100
AcDbEntity
  8
0
  6
ByLayer
 62
    7
370
   -1
100
AcDbLine
 10
74.48049206317378
 20
31.20612502661912
 11
74.17803534738714
 21
31.06667936417073
  0
LINE
  5
275
100
AcDbEntity
  8
0
  6
ByLayer
 62
    7
370
   -1
100
AcDbLine
 10
74.17803534738714
 20
31.06667936417073
 11
73.87540201315868
 21
30.92405385680273
  0
LINE
  5
276
100
AcDbEntity
  8
0
  6
ByLayer
 62
    7
370
   -1
100
AcDbLine
 10
73.87540201315868
 20
30.92405385680273
 11
73.57332393521568
 21
30.77785538780202
  0
LINE
  5
277
100
AcDbEntity
  8
0
  6
ByLayer
 62
    7
370
   -1
100
AcDbLine
 10
73.57332393521568
 20
30.77785538780202
 11
73.27253298828539
 21
30.62769084045551
  0
LINE
  5
278
100
AcDbEntity
  8
0
  6
ByLayer
 62
    7
370
   -1
100
AcDbLine
 10
73.27253298828539
 20
30.62769084045551
 11
72.97376104709508
 21
30.47316709805008
  0
LINE
  5
279
100
AcDbEntity
  8
0
  6
ByLayer
 62
    7
370
   -1
100
AcDbLine
 10
72.97376104709508
 20
30.47316709805008
 11
72.67773998637205
 21
30.31389104387265
  0
LINE
  5
27A
100
AcDbEntity
  8
0
  6
ByLayer
 62
    7
370
   -1
100
AcDbLine
 10
72.67773998637205
 20
30.31389104387265
 11
72.38520168084355
 21
30.1494695612101
  0
LINE
  5
27B
100
AcDbEntity
  8
0
  6
ByLayer
 62
    7
370
   -1
100
AcDbLine
 10
72.38520168084355
 20
30.1494695612101
 11
72.09687800523682
 21
29.97950953334934
  0
LINE
  5
27C
100
AcDbEntity
  8
0
  6
ByLayer
 62
    7
370
   -1
100
AcDbLine
 10
72.09687800523682
 20
29.97950953334934
 11
71.81350083427915
 21
29.80361784357726
  0
LINE
  5
27D
100
AcDbEntity
  8
0
  6
ByLayer
 62
    7
370
   -1
100
AcDbLine
 10
71.81350083427915
 20
29.80361784357726
 11
71.5358020426978
 21
29.62140137518077
  0
LINE
  5
27E
100
AcDbEntity
  8
0
  6
ByLayer
 62
    7
370
   -1
100
AcDbLine
 10
71.5358020426978
 20
29.62140137518077
 11
71.26451350522004
 21
29.43246701144675
  0
LINE
  5
27F
100
AcDbEntity
  8
0
  6
ByLayer
 62
    7
370
   -1
100
AcDbLine
 10
71.26451350522004
 20
29.43246701144675
 11
71.00036709657313
 21
29.23642163566212
  0
LINE
  5
280
100
AcDbEntity
  8
0
  6
ByLayer
 62
    7
370
   -1
100
AcDbLine
 10
71.00036709657313
 20
29.23642163566212
 11
70.74409469148435
 21
29.03287213111376
  0
LINE
  5
281
100
AcDbEntity
  8
0
  6
ByLayer
 62
    7
370
   -1
100
AcDbLine
 10
70.74409469148435
 20
29.03287213111376
 11
70.49642816468095
 21
28.82142538108859
  0
LINE
  5
282
100
AcDbEntity
  8
0
  6
ByLayer
 62
    7
370
   -1
100
AcDbLine
 10
70.49642816468095
 20
28.82142538108859
 11
70.25809939089021
 21
28.60168826887348
  0
LINE
  5
283
100
AcDbEntity
  8
0
  6
ByLayer
 62
    7
370
   -1
100
AcDbLine
 10
70.25809939089021
 20
28.60168826887348
 11
70.02984024483939
 21
28.37326767775536
  0
LINE
  5
284
100
AcDbEntity
  8
0
  6
ByLayer
 62
    7
370
   -1
100
AcDbLine
 10
70.02984024483939
 20
28.37326767775536
 11
69.81238260125576
 21
28.13577049102112
  0
LINE
  5
285
100
AcDbEntity
  8
0
  6
ByLayer
 62
    7
370
   -1
100
AcDbLine
 10
69.81238260125576
 20
28.13577049102112
 11
69.60645833486657
 21
27.88880359195764
  0
LINE
  5
286
100
AcDbEntity
  8
0
  6
ByLayer
 62
    7
370
   -1
100
AcDbLine
 10
69.60645833486657
 20
27.88880359195764
 11
69.41279932039912
 21
27.63197386385184
  0
LINE
  5
287
100
AcDbEntity
  8
0
  6
ByLayer
 62
    7
370
   -1
100
AcDbLine
 10
69.41279932039912
 20
27.63197386385184
 11
69.23213743258066
 21
27.3648881899906
  0
LINE
  5
288
100
AcDbEntity
  8
0
  6
ByLayer
 62
    7
370
   -1
100
AcDbLine
 10
69.23213743258066
 20
27.3648881899906
 11
69.06520454613843
 21
27.08715345366084
  0
LINE
  5
289
100
AcDbEntity
  8
0
  6
ByLayer
 62
    7
370
   -1
100
AcDbLine
 10
69.06520454613843
 20
27.08715345366084
 11
68.91273253579975
 21
26.79837653814945
  0
LINE
  5
28A
100
AcDbEntity
  8
0
  6
ByLayer
 62
    7
370
   -1
100
AcDbLine
 10
68.91273253579975
 20
26.79837653814945
 11
68.77545327629184
 21
26.49816432674331
  0
LINE
  5
28B
100
AcDbEntity
  8
0
  6
ByLayer
 62
    7
370
   -1
100
AcDbLine
 10
68.77545327629184
 20
26.49816432674331
 11
68.65409864234198
 21
26.18612370272935
  0
LINE
  5
28C
100
AcDbEntity
  8
0
  6
ByLayer
 62
    7
370
   -1
100
AcDbLine
 10
68.65409864234198
 20
26.18612370272935
 11
68.54940050867745
 21
25.86186154939445
  0
LINE
  5
28D
100
AcDbEntity
  8
0
  6
ByLayer
 62
    7
370
   -1
100
AcDbLine
 10
68.54940050867745
 20
25.86186154939445
 11
68.46209075002551
 21
25.52498475002551
  0
LINE
  5
28E
100
AcDbEntity
  8
0
  6
ByLayer
 62
    7
370
   -1
100
AcDbLine
 10
68.46209075002551
 20
25.52498475002551
 11
68.40564177181062
 21
24.93377777442886
  0
LINE
  5
28F
100
AcDbEntity
  8
0
  6
ByLayer
 62
    7
370
   -1
100
AcDbLine
 10
68.40564177181062
 20
24.93377777442886
 11
68.36753438736565
 21
24.34374018354571
  0
LINE
  5
290
100
AcDbEntity
  8
0
  6
ByLayer
 62
    7
370
   -1
100
AcDbLine
 10
68.36753438736565
 20
24.34374018354571
 11
68.34712727682891
 21
23.75490698123628
  0
LINE
  5
291
100
AcDbEntity
  8
0
  6
ByLayer
 62
    7
370
   -1
100
AcDbLine
 10
68.34712727682891
 20
23.75490698123628
 11
68.3437791203387
 21
23.16731317136081
  0
LINE
  5
292
100
AcDbEntity
  8
0
  6
ByLayer
 62
    7
370
   -1
100
AcDbLine
 10
68.3437791203387
 20
23.16731317136081
 11
68.3568485980333
 21
22.58099375777953
  0
LINE
  5
293
100
AcDbEntity
  8
0
  6
ByLayer
 62
    7
370
   -1
100
AcDbLine
 10
68.3568485980333
 20
22.58099375777953
 11
68.38569439005101
 21
21.99598374435266
  0
LINE
  5
294
100
AcDbEntity
  8
0
  6
ByLayer
 62
    7
370
   -1
100
AcDbLine
 10
68.38569439005101
 20
21.99598374435266
 11
68.42967517653015
 21
21.41231813494042
  0
LINE
  5
295
100
AcDbEntity
  8
0
  6
ByLayer
 62
    7
370
   -1
100
AcDbLine
 10
68.42967517653015
 20
21.41231813494042
 11
68.488149637609
 21
20.83003193340304
  0
LINE
  5
296
100
AcDbEntity
  8
0
  6
ByLayer
 62
    7
370
   -1
100
AcDbLine
 10
68.488149637609
 20
20.83003193340304
 11
68.56047645342585
 21
20.24916014360075
  0
LINE
  5
297
100
AcDbEntity
  8
0
  6
ByLayer
 62
    7
370
   -1
100
AcDbLine
 10
68.56047645342585
 20
20.24916014360075
 11
68.64601430411902
 21
19.66973776939377
  0
LINE
  5
298
100
AcDbEntity
  8
0
  6
ByLayer
 62
    7
370
   -1
100
AcDbLine
 10
68.64601430411902
 20
19.66973776939377
 11
68.74412186982678
 21
19.09179981464234
  0
LINE
  5
299
100
AcDbEntity
  8
0
  6
ByLayer
 62
    7
370
   -1
100
AcDbLine
 10
68.74412186982678
 20
19.09179981464234
 11
68.85415783068746
 21
18.51538128320668
  0
LINE
  5
29A
100
AcDbEntity
  8
0
  6
ByLayer
 62
    7
370
   -1
100
AcDbLine
 10
68.85415783068746
 20
18.51538128320668
 11
68.97548086683931
 21
17.940517178947
  0
LINE
  5
29B
100
AcDbEntity
  8
0
  6
ByLayer
 62
    7
370
   -1
100
AcDbLine
 10
68.97548086683931
 20
17.940517178947
 11
69.10744965842066
 21
17.36724250572354
  0
LINE
  5
29C
100
AcDbEntity
  8
0
  6
ByLayer
 62
    7
370
   -1
100
AcDbLine
 10
69.10744965842066
 20
17.36724250572354
 11
69.2494228855698
 21
16.79559226739653
  0
LINE
  5
29D
100
AcDbEntity
  8
0
  6
ByLayer
 62
    7
370
   -1
100
AcDbLine
 10
69.2494228855698
 20
16.79559226739653
 11
69.40075922842502
 21
16.22560146782619
  0
LINE
  5
29E
100
AcDbEntity
  8
0
  6
ByLayer
 62
    7
370
   -1
100
AcDbLine
 10
69.40075922842502
 20
16.22560146782619
 11
69.56081736712463
 21
15.65730511087275
  0
LINE
  5
29F
100
AcDbEntity
  8
0
  6
ByLayer
 62
    7
370
   -1
100
AcDbLine
 10
69.56081736712463
 20
15.65730511087275
 11
69.72895598180692
 21
15.09073820039644
  0
LINE
  5
2A0
100
AcDbEntity
  8
0
  6
ByLayer
 62
    7
370
   -1
100
AcDbLine
 10
69.72895598180692
 20
15.09073820039644
 11
69.90453375261018
 21
14.52593574025747
  0
LINE
  5
2A1
100
AcDbEntity
  8
0
  6
ByLayer
 62
    7
370
   -1
100
AcDbLine
 10
69.90453375261018
 20
14.52593574025747
 11
70.08690935967272
 21
13.96293273431607
  0
LINE
  5
2A2
100
AcDbEntity
  8
0
  6
ByLayer
 62
    7
370
   -1
100
AcDbLine
 10
70.08690935967272
 20
13.96293273431607
 11
70.27544148313282
 21
13.40176418643249
  0
LINE
  5
2A3
100
AcDbEntity
  8
0
  6
ByLayer
 62
    7
370
   -1
100
AcDbLine
 10
70.27544148313282
 20
13.40176418643249
 11
70.4694888031288
 21
12.84246510046693
  0
LINE
  5
2A4
100
AcDbEntity
  8
0
  6
ByLayer
 62
    7
370
   -1
100
AcDbLine
 10
70.4694888031288
 20
12.84246510046693
 11
70.66840999979894
 21
12.28507048027963
  0
LINE
  5
2A5
100
AcDbEntity
  8
0
  6
ByLayer
 62
    7
370
   -1
100
AcDbLine
 10
70.66840999979894
 20
12.28507048027963
 11
70.87156375328152
 21
11.7296153297308
  0
LINE
  5
2A6
100
AcDbEntity
  8
0
  6
ByLayer
 62
    7
370
   -1
100
AcDbLine
 10
70.87156375328152
 20
11.7296153297308
 11
71.07830874371487
 21
11.17613465268069
  0
LINE
  5
2A7
100
AcDbEntity
  8
0
  6
ByLayer
 62
    7
370
   -1
100
AcDbLine
 10
71.07830874371487
 20
11.17613465268069
 11
71.28800365123728
 21
10.62466345298951
  0
LINE
  5
2A8
100
AcDbEntity
  8
0
  6
ByLayer
 62
    7
370
   -1
100
AcDbLine
 10
71.28800365123728
 20
10.62466345298951
 11
71.50000715598705
 21
10.07523673451748
  0
LINE
  5
2A9
100
AcDbEntity
  8
0
  6
ByLayer
 62
    7
370
   -1
100
AcDbLine
 10
71.50000715598705
 20
10.07523673451748
 11
71.71367793810245
 21
9.52788950112485
  0
LINE
  5
2AA
100
AcDbEntity
  8
0
  6
ByLayer
 62
    7
370
   -1
100
AcDbLine
 10
71.71367793810245
 20
9.52788950112485
 11
71.92837467772179
 21
8.982656756671826
  0
LINE
  5
2AB
100
AcDbEntity
  8
0
  6
ByLayer
 62
    7
370
   -1
100
AcDbLine
 10
71.92837467772179
 20
8.982656756671826
 11
72.14345605498339
 21
8.439573505018643
  0
LINE
  5
2AC
100
AcDbEntity
  8
0
  6
ByLayer
 62
    7
370
   -1
100
AcDbLine
 10
72.14345605498339
 20
8.439573505018643
 11
72.35828075002551
 21
7.898674750025515
  0
ENDSEC
  0
SECTION
  2
OBJECTS
  0
DICTIONARY
  5
C
330
0
100
AcDbDictionary
281
    1
  3
ACAD_GROUP
350
D
  0
DICTIONARY
  5
D
330
C
100
AcDbDictionary
281
    1
  0
ENDSEC
  0
EOF
