999
dxfrw 0.6.3
  0
SECTION
  2
HEADER
  9
$ACADVER
  1
AC1021
  9
$DWGCODEPAGE
  3
ANSI_1252
  9
$INSBASE
 10
0
 20
0
 30
0
  9
$EXTMIN
 10
-15.10036169227978
 20
-7.740270990351505
 30
0
  9
$EXTMAX
 10
133.0245431923308
 20
38.2604894753764
 30
0
  9
$LIMMIN
 10
0
 20
0
  9
$LIMMAX
 10
420
 20
297
  9
$ORTHOMODE
 70
    0
  9
$REGENMODE
 70
    1
  9
$FILLMODE
 70
    1
  9
$QTEXTMODE
 70
    0
  9
$MIRRTEXT
 70
    0
  9
$LTSCALE
 40
1
  9
$ATTMODE
 70
    0
  9
$TEXTSIZE
 40
2.5
  9
$TRACEWID
 40
15.68
  9
$TEXTSTYLE
  7
STANDARD
  9
$CLAYER
  8
nez
  9
$CELTYPE
  6
BYLAYER
  9
$CECOLOR
 62
  256
  9
$CELTSCALE
 40
1
  9
$DISPSILH
 70
    0
  9
$DIMSCALE
 40
1
  9
$DIMASZ
 40
2.5
  9
$DIMEXO
 40
0.625
  9
$DIMDLI
 40
3.75
  9
$DIMRND
 40
0
  9
$DIMDLE
 40
0
  9
$DIMEXE
 40
1.25
  9
$DIMTP
 40
0
  9
$DIMTM
 40
0
  9
$DIMTXT
 40
2.5
  9
$DIMCEN
 40
2.5
  9
$DIMTSZ
 40
0
  9
$DIMTOL
 70
    0
  9
$DIMLIM
 70
    0
  9
$DIMTIH
 70
    0
  9
$DIMTOH
 70
    0
  9
$DIMSE1
 70
    0
  9
$DIMSE2
 70
    0
  9
$DIMTAD
 70
    1
  9
$DIMZIN
 70
    8
  9
$DIMBLK
  1

  9
$DIMASO
 70
    1
  9
$DIMSHO
 70
    1
  9
$DIMPOST
  1

  9
$DIMAPOST
  1

  9
$DIMALT
 70
    0
  9
$DIMALTD
 70
    3
  9
$DIMALTF
 40
0.03937
  9
$DIMLFAC
 40
1
  9
$DIMTOFL
 70
    1
  9
$DIMTVP
 40
0
  9
$DIMTIX
 70
    0
  9
$DIMSOXD
 70
    0
  9
$DIMSAH
 70
    0
  9
$DIMBLK1
  1

  9
$DIMBLK2
  1

  9
$DIMSTYLE
  2
STANDARD
  9
$DIMCLRD
 70
    0
  9
$DIMCLRE
 70
    0
  9
$DIMCLRT
 70
    0
  9
$DIMTFAC
 40
1
  9
$DIMGAP
 40
0.625
  9
$DIMJUST
 70
    0
  9
$DIMSD1
 70
    0
  9
$DIMSD2
 70
    0
  9
$DIMTOLJ
 70
    0
  9
$DIMTZIN
 70
    8
  9
$DIMALTZ
 70
    0
  9
$DIMALTTZ
 70
    0
  9
$DIMUPT
 70
    0
  9
$DIMDEC
 70
    4
  9
$DIMTDEC
 70
    2
  9
$DIMALTU
 70
    2
  9
$DIMALTTD
 70
    3
  9
$DIMTXSTY
  7
STANDARD
  9
$DIMAUNIT
 70
    0
  9
$DIMADEC
 70
    0
  9
$DIMALTRND
 40
0
  9
$DIMAZIN
 70
    0
  9
$DIMDSEP
 70
   44
  9
$DIMATFIT
 70
    3
  9
$DIMFRAC
 70
    0
  9
$DIMLDRBLK
  1
STANDARD
  9
$DIMLUNIT
 70
    2
  9
$DIMLWD
 70
   -2
  9
$DIMLWE
 70
   -2
  9
$DIMTMOVE
 70
    0
  9
$DIMFXL
 40
1
  9
$DIMFXLON
 70
    0
  9
$DIMJOGANG
 40
0.7854
  9
$DIMTFILL
 70
    0
  9
$DIMTFILLCLR
 70
    0
  9
$DIMARCSYM
 70
    0
  9
$DIMLTYPE
  6

  9
$DIMLTEX1
  6

  9
$DIMLTEX2
  6

  9
$LUNITS
 70
    2
  9
$LUPREC
 70
    4
  9
$SKETCHINC
 40
1
  9
$FILLETRAD
 40
0
  9
$AUNITS
 70
    0
  9
$AUPREC
 70
    2
  9
$MENU
  1
.
  9
$ELEVATION
 40
0
  9
$PELEVATION
 40
0
  9
$THICKNESS
 40
0
  9
$LIMCHECK
 70
    0
  9
$CHAMFERA
 40
0
  9
$CHAMFERB
 40
0
  9
$CHAMFERC
 40
0
  9
$CHAMFERD
 40
0
  9
$SKPOLY
 70
    0
  9
$USRTIMER
 70
    1
  9
$ANGBASE
 50
0
  9
$ANGDIR
 70
    0
  9
$PDMODE
 70
   34
  9
$PDSIZE
 40
0
  9
$PLINEWID
 40
0
  9
$SPLFRAME
 70
    0
  9
$SPLINETYPE
 70
    2
  9
$SPLINESEGS
 70
    8
  9
$HANDSEED
  5
20000
  9
$SURFTAB1
 70
    6
  9
$SURFTAB2
 70
    6
  9
$SURFTYPE
 70
    6
  9
$SURFU
 70
    6
  9
$SURFV
 70
    6
  9
$UCSBASE
  2

  9
$UCSNAME
  2

  9
$UCSORG
 10
0
 20
0
 30
0
  9
$UCSXDIR
 10
1
 20
0
 30
0
  9
$UCSYDIR
 10
0
 20
1
 30
0
  9
$UCSORTHOREF
  2

  9
$UCSORTHOVIEW
 70
    0
  9
$UCSORGTOP
 10
0
 20
0
 30
0
  9
$UCSORGBOTTOM
 10
0
 20
0
 30
0
  9
$UCSORGLEFT
 10
0
 20
0
 30
0
  9
$UCSORGRIGHT
 10
0
 20
0
 30
0
  9
$UCSORGFRONT
 10
0
 20
0
 30
0
  9
$UCSORGBACK
 10
0
 20
0
 30
0
  9
$PUCSBASE
  2

  9
$PUCSNAME
  2

  9
$PUCSORG
 10
0
 20
0
 30
0
  9
$PUCSXDIR
 10
1
 20
0
 30
0
  9
$PUCSYDIR
 10
0
 20
1
 30
0
  9
$PUCSORTHOREF
  2

  9
$PUCSORTHOVIEW
 70
    0
  9
$PUCSORGTOP
 10
0
 20
0
 30
0
  9
$PUCSORGBOTTOM
 10
0
 20
0
 30
0
  9
$PUCSORGLEFT
 10
0
 20
0
 30
0
  9
$PUCSORGRIGHT
 10
0
 20
0
 30
0
  9
$PUCSORGFRONT
 10
0
 20
0
 30
0
  9
$PUCSORGBACK
 10
0
 20
0
 30
0
  9
$USERI1
 70
    0
  9
$USERI2
 70
    0
  9
$USERI3
 70
    0
  9
$USERI4
 70
    0
  9
$USERI5
 70
    0
  9
$USERR1
 40
0
  9
$USERR2
 40
0
  9
$USERR3
 40
0
  9
$USERR4
 40
0
  9
$USERR5
 40
0
  9
$WORLDVIEW
 70
    1
  9
$SHADEDGE
 70
    3
  9
$SHADEDIF
 70
   70
  9
$TILEMODE
 70
    1
  9
$MAXACTVP
 70
   64
  9
$PINSBASE
 10
0
 20
0
 30
0
  9
$PLIMCHECK
 70
    0
  9
$PEXTMIN
 10
0
 20
0
 30
0
  9
$PEXTMAX
 10
0
 20
0
 30
0
  9
$GRIDMODE
 70
    0
  9
$SNAPSTYLE
 70
    0
  9
$PLIMMIN
 10
0
 20
0
  9
$PLIMMAX
 10
297
 20
210
  9
$UNITMODE
 70
    0
  9
$VISRETAIN
 70
    1
  9
$PLINEGEN
 70
    0
  9
$PSLTSCALE
 70
    1
  9
$TREEDEPTH
 70
 3020
  9
$CMLSTYLE
  2
Standard
  9
$CMLJUST
 70
    0
  9
$CMLSCALE
 40
20
  9
$PROXYGRAPHICS
 70
    1
  9
$MEASUREMENT
 70
    1
  9
$CELWEIGHT
370
   -1
  9
$ENDCAPS
280
    0
  9
$JOINSTYLE
280
    0
  9
$LWDISPLAY
290
    0
  9
$INSUNITS
 70
    4
  9
$HYPERLINKBASE
  1

  9
$STYLESHEET
  1

  9
$XEDIT
290
    1
  9
$CEPSNTYPE
380
    0
  9
$PSTYLEMODE
290
    1
  9
$EXTNAMES
290
    1
  9
$PSVPSCALE
 40
1
  9
$OLESTARTUP
290
    0
  9
$SORTENTS
280
  127
  9
$INDEXCTL
280
    0
  9
$HIDETEXT
280
    1
  9
$XCLIPFRAME
290
    0
  9
$HALOGAP
280
    0
  9
$OBSCOLOR
 70
  257
  9
$OBSLTYPE
280
    0
  9
$INTERSECTIONDISPLAY
280
    0
  9
$INTERSECTIONCOLOR
 70
  257
  9
$DIMASSOC
280
    1
  9
$PROJECTNAME
  1

  9
$CAMERADISPLAY
290
    0
  9
$LENSLENGTH
 40
50
  9
$CAMERAHEIGHT
 40
0
  9
$STEPSPERSEC
 40
2
  9
$STEPSIZE
 40
50
  9
$3DDWFPREC
 40
2
  9
$PSOLWIDTH
 40
5
  9
$PSOLHEIGHT
 40
80
  9
$LOFTANG1
 40
1.570796326794897
  9
$LOFTANG2
 40
1.570796326794897
  9
$LOFTMAG1
 40
0
  9
$LOFTMAG2
 40
0
  9
$LOFTPARAM
 70
    7
  9
$LOFTNORMALS
280
    1
  9
$LATITUDE
 40
1
  9
$LONGITUDE
 40
1
  9
$NORTHDIRECTION
 40
0
  9
$TIMEZONE
 70
-8000
  9
$LIGHTGLYPHDISPLAY
280
    1
  9
$TILEMODELIGHTSYNCH
280
    1
  9
$SOLIDHIST
280
    1
  9
$SHOWHIST
280
    1
  9
$DWFFRAME
280
    2
  9
$DGNFRAME
280
    0
  9
$REALWORLDSCALE
290
    1
  9
$INTERFERECOLOR
 62
    1
  9
$CSHADOW
280
    0
  9
$SHADOWPLANELOCATION
 40
0
  0
ENDSEC
  0
SECTION
  2
CLASSES
  0
ENDSEC
  0
SECTION
  2
TABLES
  0
TABLE
  2
VPORT
  5
8
330
0
100
AcDbSymbolTable
 70
    1
  0
VPORT
  5
31
330
2
100
AcDbSymbolTableRecord
100
AcDbViewportTableRecord
  2
*ACTIVE
 70
    0
 10
0
 20
0
 11
1
 21
1
 12
40.09054105649763
 22
18.86814400361123
 13
0
 23
0
 14
10
 24
10
 15
10
 25
10
 16
0
 26
0
 36
1
 17
0
 27
0
 37
0
 40
34.11960940978523
 41
1.66
 42
50
 43
0
 44
0
 50
0
 51
0
 71
    0
 72
  100
 73
    1
 74
    3
 75
    0
 76
    0
 77
    0
 78
    0
281
    0
 65
    1
110
0
120
0
130
0
111
1
121
0
131
0
112
0
122
1
132
0
 79
    0
146
0
348
10020
 60
    7
 61
    5
292
1
282
    1
141
0
142
0
 63
  250
421
3358443
  0
ENDTAB
  0
TABLE
  2
LTYPE
  5
5
330
0
100
AcDbSymbolTable
 70
    4
  0
LTYPE
  5
14
330
5
100
AcDbSymbolTableRecord
100
AcDbLinetypeTableRecord
  2
ByBlock
 70
    0
  3

 72
   65
 73
    0
 40
0
  0
LTYPE
  5
15
330
5
100
AcDbSymbolTableRecord
100
AcDbLinetypeTableRecord
  2
ByLayer
 70
    0
  3

 72
   65
 73
    0
 40
0
  0
LTYPE
  5
16
330
5
100
AcDbSymbolTableRecord
100
AcDbLinetypeTableRecord
  2
Continuous
 70
    0
  3
Solid line
 72
   65
 73
    0
 40
0
  0
LTYPE
  5
32
330
5
100
AcDbSymbolTableRecord
100
AcDbLinetypeTableRecord
  2
DOT
 70
    0
  3
Dot . . . . . . . . . . . . . . . . . . . . . .
 72
   65
 73
    2
 40
6.35
 49
0
 74
    0
 49
-6.35
 74
    0
  0
LTYPE
  5
33
330
5
100
AcDbSymbolTableRecord
100
AcDbLinetypeTableRecord
  2
DOTTINY
 70
    0
  3
Dot (.15x) .....................................
 72
   65
 73
    2
 40
0.9525
 49
0
 74
    0
 49
-0.9525
 74
    0
  0
LTYPE
  5
34
330
5
100
AcDbSymbolTableRecord
100
AcDbLinetypeTableRecord
  2
DOT2
 70
    0
  3
Dot (.5x) .....................................
 72
   65
 73
    2
 40
3.175
 49
0
 74
    0
 49
-3.175
 74
    0
  0
LTYPE
  5
35
330
5
100
AcDbSymbolTableRecord
100
AcDbLinetypeTableRecord
  2
DOTX2
 70
    0
  3
Dot (2x) .  .  .  .  .  .  .  .  .  .  .  .  .
 72
   65
 73
    2
 40
12.7
 49
0
 74
    0
 49
-12.7
 74
    0
  0
LTYPE
  5
36
330
5
100
AcDbSymbolTableRecord
100
AcDbLinetypeTableRecord
  2
DASHED
 70
    0
  3
Dashed _ _ _ _ _ _ _ _ _ _ _ _ _ _ _ _ _
 72
   65
 73
    2
 40
19.05
 49
12.7
 74
    0
 49
-6.35
 74
    0
  0
LTYPE
  5
37
330
5
100
AcDbSymbolTableRecord
100
AcDbLinetypeTableRecord
  2
DASHEDTINY
 70
    0
  3
Dashed (.15x) _ _ _ _ _ _ _ _ _ _ _ _ _ _ _ _ _
 72
   65
 73
    2
 40
2.8575
 49
1.905
 74
    0
 49
-0.9525
 74
    0
  0
LTYPE
  5
38
330
5
100
AcDbSymbolTableRecord
100
AcDbLinetypeTableRecord
  2
DASHED2
 70
    0
  3
Dashed (.5x) _ _ _ _ _ _ _ _ _ _ _ _ _ _ _ _ _
 72
   65
 73
    2
 40
9.524999999999999
 49
6.35
 74
    0
 49
-3.175
 74
    0
  0
LTYPE
  5
39
330
5
100
AcDbSymbolTableRecord
100
AcDbLinetypeTableRecord
  2
DASHEDX2
 70
    0
  3
Dashed (2x) ____  ____  ____  ____  ____  ___
 72
   65
 73
    2
 40
38.09999999999999
 49
25.4
 74
    0
 49
-12.7
 74
    0
  0
LTYPE
  5
3A
330
5
100
AcDbSymbolTableRecord
100
AcDbLinetypeTableRecord
  2
DASHDOT
 70
    0
  3
Dash dot __ . __ . __ . __ . __ . __ . __ . __
 72
   65
 73
    4
 40
25.4
 49
12.7
 74
    0
 49
-6.35
 74
    0
 49
0
 74
    0
 49
-6.35
 74
    0
  0
LTYPE
  5
3B
330
5
100
AcDbSymbolTableRecord
100
AcDbLinetypeTableRecord
  2
DASHDOTTINY
 70
    0
  3
Dash dot (.15x) _._._._._._._._._._._._._._._.
 72
   65
 73
    4
 40
3.81
 49
1.905
 74
    0
 49
-0.9525
 74
    0
 49
0
 74
    0
 49
-0.9525
 74
    0
  0
LTYPE
  5
3C
330
5
100
AcDbSymbolTableRecord
100
AcDbLinetypeTableRecord
  2
DASHDOT2
 70
    0
  3
Dash dot (.5x) _._._._._._._._._._._._._._._.
 72
   65
 73
    4
 40
12.7
 49
6.35
 74
    0
 49
-3.175
 74
    0
 49
0
 74
    0
 49
-3.175
 74
    0
  0
LTYPE
  5
3D
330
5
100
AcDbSymbolTableRecord
100
AcDbLinetypeTableRecord
  2
DASHDOTX2
 70
    0
  3
Dash dot (2x) ____  .  ____  .  ____  .  ___
 72
   65
 73
    4
 40
50.8
 49
25.4
 74
    0
 49
-12.7
 74
    0
 49
0
 74
    0
 49
-12.7
 74
    0
  0
LTYPE
  5
3E
330
5
100
AcDbSymbolTableRecord
100
AcDbLinetypeTableRecord
  2
DIVIDE
 70
    0
  3
Divide ____ . . ____ . . ____ . . ____ . . ____
 72
   65
 73
    6
 40
31.75
 49
12.7
 74
    0
 49
-6.35
 74
    0
 49
0
 74
    0
 49
-6.35
 74
    0
 49
0
 74
    0
 49
-6.35
 74
    0
  0
LTYPE
  5
3F
330
5
100
AcDbSymbolTableRecord
100
AcDbLinetypeTableRecord
  2
DIVIDETINY
 70
    0
  3
Divide (.15x) __..__..__..__..__..__..__..__.._
 72
   65
 73
    6
 40
4.7625
 49
1.905
 74
    0
 49
-0.9525
 74
    0
 49
0
 74
    0
 49
-0.9525
 74
    0
 49
0
 74
    0
 49
-0.9525
 74
    0
  0
LTYPE
  5
40
330
5
100
AcDbSymbolTableRecord
100
AcDbLinetypeTableRecord
  2
DIVIDE2
 70
    0
  3
Divide (.5x) __..__..__..__..__..__..__..__.._
 72
   65
 73
    6
 40
15.875
 49
6.35
 74
    0
 49
-3.175
 74
    0
 49
0
 74
    0
 49
-3.175
 74
    0
 49
0
 74
    0
 49
-3.175
 74
    0
  0
LTYPE
  5
41
330
5
100
AcDbSymbolTableRecord
100
AcDbLinetypeTableRecord
  2
DIVIDEX2
 70
    0
  3
Divide (2x) ________  .  .  ________  .  .  _
 72
   65
 73
    6
 40
63.5
 49
25.4
 74
    0
 49
-12.7
 74
    0
 49
0
 74
    0
 49
-12.7
 74
    0
 49
0
 74
    0
 49
-12.7
 74
    0
  0
LTYPE
  5
42
330
5
100
AcDbSymbolTableRecord
100
AcDbLinetypeTableRecord
  2
BORDER
 70
    0
  3
Border __ __ . __ __ . __ __ . __ __ . __ __ .
 72
   65
 73
    6
 40
44.45
 49
12.7
 74
    0
 49
-6.35
 74
    0
 49
12.7
 74
    0
 49
-6.35
 74
    0
 49
0
 74
    0
 49
-6.35
 74
    0
  0
LTYPE
  5
43
330
5
100
AcDbSymbolTableRecord
100
AcDbLinetypeTableRecord
  2
BORDERTINY
 70
    0
  3
Border (.15x) __.__.__.__.__.__.__.__.__.__.__.
 72
   65
 73
    6
 40
6.6675
 49
1.905
 74
    0
 49
-0.9525
 74
    0
 49
1.905
 74
    0
 49
-0.9525
 74
    0
 49
0
 74
    0
 49
-0.9525
 74
    0
  0
LTYPE
  5
44
330
5
100
AcDbSymbolTableRecord
100
AcDbLinetypeTableRecord
  2
BORDER2
 70
    0
  3
Border (.5x) __.__.__.__.__.__.__.__.__.__.__.
 72
   65
 73
    6
 40
22.225
 49
6.35
 74
    0
 49
-3.175
 74
    0
 49
6.35
 74
    0
 49
-3.175
 74
    0
 49
0
 74
    0
 49
-3.175
 74
    0
  0
LTYPE
  5
45
330
5
100
AcDbSymbolTableRecord
100
AcDbLinetypeTableRecord
  2
BORDERX2
 70
    0
  3
Border (2x) ____  ____  .  ____  ____  .  ___
 72
   65
 73
    6
 40
88.89999999999999
 49
25.4
 74
    0
 49
-12.7
 74
    0
 49
25.4
 74
    0
 49
-12.7
 74
    0
 49
0
 74
    0
 49
-12.7
 74
    0
  0
LTYPE
  5
46
330
5
100
AcDbSymbolTableRecord
100
AcDbLinetypeTableRecord
  2
CENTER
 70
    0
  3
Center ____ _ ____ _ ____ _ ____ _ ____ _ ____
 72
   65
 73
    4
 40
50.8
 49
31.75
 74
    0
 49
-6.35
 74
    0
 49
6.35
 74
    0
 49
-6.35
 74
    0
  0
LTYPE
  5
47
330
5
100
AcDbSymbolTableRecord
100
AcDbLinetypeTableRecord
  2
CENTERTINY
 70
    0
  3
Center (.15x) ___ _ ___ _ ___ _ ___ _ ___ _ ___
 72
   65
 73
    4
 40
7.619999999999999
 49
4.7625
 74
    0
 49
-0.9525
 74
    0
 49
0.9525
 74
    0
 49
-0.9525
 74
    0
  0
LTYPE
  5
48
330
5
100
AcDbSymbolTableRecord
100
AcDbLinetypeTableRecord
  2
CENTER2
 70
    0
  3
Center (.5x) ___ _ ___ _ ___ _ ___ _ ___ _ ___
 72
   65
 73
    4
 40
28.575
 49
19.05
 74
    0
 49
-3.175
 74
    0
 49
3.175
 74
    0
 49
-3.175
 74
    0
  0
LTYPE
  5
49
330
5
100
AcDbSymbolTableRecord
100
AcDbLinetypeTableRecord
  2
CENTERX2
 70
    0
  3
Center (2x) ________  __  ________  __  _____
 72
   65
 73
    4
 40
101.6
 49
63.5
 74
    0
 49
-12.7
 74
    0
 49
12.7
 74
    0
 49
-12.7
 74
    0
  0
ENDTAB
  0
TABLE
  2
LAYER
  5
2
330
0
100
AcDbSymbolTable
 70
    1
  0
LAYER
  5
10
330
2
100
AcDbSymbolTableRecord
100
AcDbLayerTableRecord
  2
0
 70
    1
 62
    7
  6
CONTINUOUS
370
   -3
390
F
  0
LAYER
  5
4A
330
2
100
AcDbSymbolTableRecord
100
AcDbLayerTableRecord
  2
attache
 70
    1
 62
    7
  6
CONTINUOUS
370
    0
390
F
  0
LAYER
  5
4B
330
2
100
AcDbSymbolTableRecord
100
AcDbLayerTableRecord
  2
coupure
 70
    1
 62
    7
  6
CONTINUOUS
370
    0
390
F
  0
LAYER
  5
4C
330
2
100
AcDbSymbolTableRecord
100
AcDbLayerTableRecord
  2
larger
 70
    1
 62
    7
  6
CONTINUOUS
370
    0
390
F
  0
LAYER
  5
4D
330
2
100
AcDbSymbolTableRecord
100
AcDbLayerTableRecord
  2
nez
 70
    0
 62
    7
  6
CONTINUOUS
370
    0
390
F
  0
ENDTAB
  0
TABLE
  2
STYLE
  5
3
330
0
100
AcDbSymbolTable
 70
    3
  0
STYLE
  5
4E
330
2
100
AcDbSymbolTableRecord
100
AcDbTextStyleTableRecord
  2
Standard
 70
    0
 40
0
 41
1
 50
0
 71
    0
 42
1
  3
txt
  4

  0
ENDTAB
  0
TABLE
  2
VIEW
  5
6
330
0
100
AcDbSymbolTable
 70
    0
  0
ENDTAB
  0
TABLE
  2
UCS
  5
7
330
0
100
AcDbSymbolTable
 70
    0
  0
ENDTAB
  0
TABLE
  2
APPID
  5
9
330
0
100
AcDbSymbolTable
 70
    1
  0
APPID
  5
12
330
9
100
AcDbSymbolTableRecord
100
AcDbRegAppTableRecord
  2
ACAD
 70
    0
  0
APPID
  5
4F
330
9
100
AcDbSymbolTableRecord
100
AcDbRegAppTableRecord
  2
LibreCad
 70
    0
  0
ENDTAB
  0
TABLE
  2
DIMSTYLE
  5
A
330
0
100
AcDbSymbolTable
 70
    1
100
AcDbDimStyleTable
 71
    1
  0
DIMSTYLE
105
50
330
A
100
AcDbSymbolTableRecord
100
AcDbDimStyleTableRecord
  2
Standard
 70
    0
 40
1
 41
2.5
 42
0.625
 43
0.38
 44
1.25
 45
0
 46
0
 47
0
 48
0
 49
1
140
2.5
141
0.09
142
0
143
25.4
144
1
145
0
146
1
147
0.625
148
0
 71
    0
 72
    0
 73
    0
 74
    1
 75
    0
 76
    0
 77
    0
 78
    8
 79
    0
170
    0
171
    2
172
    0
173
    0
174
    0
175
    0
176
    0
177
    0
178
    0
179
    0
271
    4
272
    4
273
    2
274
    2
275
    0
276
    0
277
    2
278
   44
279
    0
280
    0
281
    0
282
    0
283
    1
284
    0
285
    0
286
    0
288
    0
289
    3
340
STANDARD
341

371
   -2
372
   -2
  0
ENDTAB
  0
TABLE
  2
BLOCK_RECORD
  5
1
330
0
100
AcDbSymbolTable
 70
    2
  0
BLOCK_RECORD
  5
1F
330
1
100
AcDbSymbolTableRecord
100
AcDbBlockTableRecord
  2
*Model_Space
 70
    0
280
    1
281
    0
  0
BLOCK_RECORD
  5
1E
330
1
100
AcDbSymbolTableRecord
100
AcDbBlockTableRecord
  2
*Paper_Space
 70
    0
280
    1
281
    0
  0
ENDTAB
  0
ENDSEC
  0
SECTION
  2
BLOCKS
  0
BLOCK
  5
20
330
1F
100
AcDbEntity
  8
0
100
AcDbBlockBegin
  2
*Model_Space
 70
    0
 10
0
 20
0
 30
0
  3
*Model_Space
  1

  0
ENDBLK
  5
21
330
1F
100
AcDbEntity
  8
0
100
AcDbBlockEnd
  0
BLOCK
  5
1C
330
1B
100
AcDbEntity
  8
0
100
AcDbBlockBegin
  2
*Paper_Space
 70
    0
 10
0
 20
0
 30
0
  3
*Paper_Space
  1

  0
ENDBLK
  5
1D
330
1F
100
AcDbEntity
  8
0
100
AcDbBlockEnd
  0
ENDSEC
  0
SECTION
  2
ENTITIES
  0
LINE
  5
51
100
AcDbEntity
  8
0
  6
ByLayer
 62
  256
370
   -1
100
AcDbLine
 10
53.37998907023542
 20
29.0778125225383
 11
64.54419242981561
 21
29.0778125225383
  0
LINE
  5
52
100
AcDbEntity
  8
0
  6
ByLayer
 62
  256
370
   -1
100
AcDbLine
 10
44.75220607023542
 20
34.37390702253829
 11
53.37998907023542
 21
29.0778125225383
  0
LINE
  5
53
100
AcDbEntity
  8
0
  6
ByLayer
 62
  256
370
   -1
100
AcDbLine
 10
52.88950679375506
 20
23.07781252253829
 11
48.89937057023541
 21
6.807556022538293
  0
ARC
  5
54
100
AcDbEntity
  8
0
  6
ByLayer
 62
  256
370
   -1
100
AcDbCircle
 10
54.94877192081892
 20
23.07781252253829
 40
2.05926512706386
100
AcDbArc
 50
76.22066619435157
 51
180
  0
LINE
  5
55
100
AcDbEntity
  8
0
  6
ByLayer
 62
  256
370
   -1
100
AcDbLine
 10
73.1719754298156
 20
34.37390702253829
 11
64.54419242981561
 21
29.0778125225383
  0
LINE
  5
56
100
AcDbEntity
  8
0
  6
ByLayer
 62
  256
370
   -1
100
AcDbLine
 10
65.03467470629596
 20
23.07781252253829
 11
69.0248109298156
 21
6.807556022538293
  0
ARC
  5
57
100
AcDbEntity
  8
0
  6
ByLayer
 62
  256
370
   -1
100
AcDbCircle
 10
62.9754095792321
 20
23.07781252253829
 40
2.05926512706386
100
AcDbArc
 50
360
 51
103.7793338056485
  0
LINE
  5
58
100
AcDbEntity
  8
0
  6
ByLayer
 62
  256
370
   -1
100
AcDbLine
 10
55.43925419729928
 20
25.07781252253829
 11
62.48492730275174
 21
25.07781252253829
  0
LINE
  5
59
100
AcDbEntity
  8
larger
  6
ByLayer
 62
  256
370
   -1
100
AcDbLine
 10
53.37998907023542
 20
29.0778125225383
 11
64.54419242981561
 21
29.0778125225383
  0
LINE
  5
5A
100
AcDbEntity
  8
larger
  6
ByLayer
 62
  256
370
   -1
100
AcDbLine
 10
44.75220607023542
 20
34.37390702253829
 11
53.37998907023542
 21
29.0778125225383
  0
LINE
  5
5B
100
AcDbEntity
  8
larger
  6
ByLayer
 62
  256
370
   -1
100
AcDbLine
 10
52.88950679375506
 20
23.07781252253829
 11
48.89937057023541
 21
6.807556022538293
  0
ARC
  5
5C
100
AcDbEntity
  8
larger
  6
ByLayer
 62
  256
370
   -1
100
AcDbCircle
 10
54.94877192081892
 20
23.07781252253829
 40
2.05926512706386
100
AcDbArc
 50
76.22066619435157
 51
180
  0
LINE
  5
5D
100
AcDbEntity
  8
larger
  6
ByLayer
 62
  256
370
   -1
100
AcDbLine
 10
73.1719754298156
 20
34.37390702253829
 11
64.54419242981561
 21
29.0778125225383
  0
LINE
  5
5E
100
AcDbEntity
  8
larger
  6
ByLayer
 62
  256
370
   -1
100
AcDbLine
 10
65.03467470629596
 20
23.07781252253829
 11
69.0248109298156
 21
6.807556022538293
  0
ARC
  5
5F
100
AcDbEntity
  8
larger
  6
ByLayer
 62
  256
370
   -1
100
AcDbCircle
 10
62.9754095792321
 20
23.07781252253829
 40
2.05926512706386
100
AcDbArc
 50
360
 51
103.7793338056485
  0
LINE
  5
60
100
AcDbEntity
  8
larger
  6
ByLayer
 62
  256
370
   -1
100
AcDbLine
 10
55.43925419729928
 20
25.07781252253829
 11
62.48492730275174
 21
25.07781252253829
  0
LINE
  5
61
100
AcDbEntity
  8
0
  6
ByLayer
 62
  256
370
   -1
100
AcDbLine
 10
119.18490046418
 20
33.84291004084079
 11
131.1443824291924
 21
31.83301143266734
  0
LINE
  5
62
100
AcDbEntity
  8
0
  6
ByLayer
 62
  256
370
   -1
100
AcDbLine
 10
130.8735733254804
 20
24.17495368645525
 11
124.9368046842549
 21
20.39643499748038
  0
LINE
  5
63
100
AcDbEntity
  8
0
  6
ByLayer
 62
  256
370
   -1
100
AcDbLine
 10
131.1443824291924
 20
31.83301143266734
 11
130.8735733254804
 21
24.17495368645525
  0
LINE
  5
64
100
AcDbEntity
  8
0
  6
ByLayer
 62
  256
370
   -1
100
AcDbLine
 10
117.7523464298156
 20
34.53608002253829
 11
119.18490046418
 21
33.84291004084079
  0
LINE
  5
65
100
AcDbEntity
  8
0
  6
ByLayer
 62
  256
370
   -1
100
AcDbLine
 10
124.9368046842549
 20
20.39643499748038
 11
121.0825509298156
 21
2.649765522538297
  0
LINE
  5
66
100
AcDbEntity
  8
0
  6
ByLayer
 62
  256
370
   -1
100
AcDbLine
 10
-1.260718964128984
 20
33.84291004084079
 11
-13.22020092914138
 21
31.83301143266734
  0
LINE
  5
67
100
AcDbEntity
  8
0
  6
ByLayer
 62
  256
370
   -1
100
AcDbLine
 10
-12.94939182542939
 20
24.17495368645525
 11
-7.012623184203832
 21
20.39643499748037
  0
LINE
  5
68
100
AcDbEntity
  8
0
  6
ByLayer
 62
  256
370
   -1
100
AcDbLine
 10
-13.22020092914138
 20
31.83301143266734
 11
-12.94939182542939
 21
24.17495368645525
  0
LINE
  5
69
100
AcDbEntity
  8
0
  6
ByLayer
 62
  256
370
   -1
100
AcDbLine
 10
-7.012623184203832
 20
20.39643499748037
 11
-3.158369429764576
 21
2.649765522538294
  0
LINE
  5
6A
100
AcDbEntity
  8
0
  6
ByLayer
 62
  256
370
   -1
100
AcDbLine
 10
-1.260718964128984
 20
33.84291004084079
 11
0.1718350702354172
 21
34.53608002253829
  0
LINE
  5
6B
100
AcDbEntity
  8
larger
  6
ByLayer
 62
  256
370
   -1
100
AcDbLine
 10
119.18490046418
 20
33.84291004084079
 11
131.1443824291924
 21
31.83301143266734
  0
LINE
  5
6C
100
AcDbEntity
  8
larger
  6
ByLayer
 62
  256
370
   -1
100
AcDbLine
 10
130.8735733254804
 20
24.17495368645525
 11
124.9368046842549
 21
20.39643499748038
  0
LINE
  5
6D
100
AcDbEntity
  8
larger
  6
ByLayer
 62
  256
370
   -1
100
AcDbLine
 10
131.1443824291924
 20
31.83301143266734
 11
130.8735733254804
 21
24.17495368645525
  0
LINE
  5
6E
100
AcDbEntity
  8
larger
  6
ByLayer
 62
  256
370
   -1
100
AcDbLine
 10
117.7523464298156
 20
34.53608002253829
 11
119.18490046418
 21
33.84291004084079
  0
LINE
  5
6F
100
AcDbEntity
  8
larger
  6
ByLayer
 62
  256
370
   -1
100
AcDbLine
 10
124.9368046842549
 20
20.39643499748038
 11
121.0825509298156
 21
2.649765522538297
  0
LINE
  5
70
100
AcDbEntity
  8
larger
  6
ByLayer
 62
  256
370
   -1
100
AcDbLine
 10
-1.260718964128984
 20
33.84291004084079
 11
-13.22020092914138
 21
31.83301143266734
  0
LINE
  5
71
100
AcDbEntity
  8
larger
  6
ByLayer
 62
  256
370
   -1
100
AcDbLine
 10
-12.94939182542939
 20
24.17495368645525
 11
-7.012623184203832
 21
20.39643499748037
  0
LINE
  5
72
100
AcDbEntity
  8
larger
  6
ByLayer
 62
  256
370
   -1
100
AcDbLine
 10
-13.22020092914138
 20
31.83301143266734
 11
-12.94939182542939
 21
24.17495368645525
  0
LINE
  5
73
100
AcDbEntity
  8
larger
  6
ByLayer
 62
  256
370
   -1
100
AcDbLine
 10
-7.012623184203832
 20
20.39643499748037
 11
-3.158369429764576
 21
2.649765522538294
  0
LINE
  5
74
100
AcDbEntity
  8
larger
  6
ByLayer
 62
  256
370
   -1
100
AcDbLine
 10
-1.260718964128984
 20
33.84291004084079
 11
0.1718350702354172
 21
34.53608002253829
  0
LINE
  5
75
100
AcDbEntity
  8
attache
  6
ByLayer
 62
  256
370
   -1
100
AcDbLine
 10
130.8735733254804
 20
24.17495368645525
 11
124.9368046842549
 21
20.39643499748038
  0
LINE
  5
76
100
AcDbEntity
  8
attache
  6
ByLayer
 62
  256
370
   -1
100
AcDbLine
 10
124.9368046842549
 20
32.9599013703037
 11
131.1443824291924
 21
31.83301143266734
  0
LINE
  5
77
100
AcDbEntity
  8
nez
  6
ByLayer
 62
  256
370
   -1
100
AcDbLine
 10
64.88031498359454
 20
22.98900663990187
 11
67.02974281805578
 21
14.94268427253829
  0
LINE
  5
78
100
AcDbEntity
  8
nez
  6
ByLayer
 62
  256
370
   -1
100
AcDbLine
 10
53.04386651645648
 20
22.98900663990187
 11
50.89443868199524
 21
14.94268427253829
  0
LINE
  5
79
100
AcDbEntity
  8
0
  6
ByLayer
 62
    7
370
   -1
100
AcDbLine
 10
-3.019859249974488
 20
22.41468475002551
 11
-3.010192099157138
 21
22.80552872807258
  0
LINE
  5
7A
100
AcDbEntity
  8
0
  6
ByLayer
 62
    7
370
   -1
100
AcDbLine
 10
-3.010192099157138
 20
22.80552872807258
 11
-2.986288828034979
 21
23.19599062226881
  0
LINE
  5
7B
100
AcDbEntity
  8
0
  6
ByLayer
 62
    7
370
   -1
100
AcDbLine
 10
-2.986288828034979
 20
23.19599062226881
 11
-2.948306386022288
 21
23.58554924366453
  0
LINE
  5
7C
100
AcDbEntity
  8
0
  6
ByLayer
 62
    7
370
   -1
100
AcDbLine
 10
-2.948306386022288
 20
23.58554924366453
 11
-2.896401722533319
 21
23.97368340331006
  0
LINE
  5
7D
100
AcDbEntity
  8
0
  6
ByLayer
 62
    7
370
   -1
100
AcDbLine
 10
-2.896401722533319
 20
23.97368340331006
 11
-2.830731786982305
 21
24.35987191225571
  0
LINE
  5
7E
100
AcDbEntity
  8
0
  6
ByLayer
 62
    7
370
   -1
100
AcDbLine
 10
-2.830731786982305
 20
24.35987191225571
 11
-2.751453528783529
 21
24.74359358155181
  0
LINE
  5
7F
100
AcDbEntity
  8
0
  6
ByLayer
 62
    7
370
   -1
100
AcDbLine
 10
-2.751453528783529
 20
24.74359358155181
 11
-2.658723897351216
 21
25.12432722224867
  0
LINE
  5
80
100
AcDbEntity
  8
0
  6
ByLayer
 62
    7
370
   -1
100
AcDbLine
 10
-2.658723897351216
 20
25.12432722224867
 11
-2.552699842099635
 21
25.5015516453966
  0
LINE
  5
81
100
AcDbEntity
  8
0
  6
ByLayer
 62
    7
370
   -1
100
AcDbLine
 10
-2.552699842099635
 20
25.5015516453966
 11
-2.433538312443005
 21
25.87474566204592
  0
LINE
  5
82
100
AcDbEntity
  8
0
  6
ByLayer
 62
    7
370
   -1
100
AcDbLine
 10
-2.433538312443005
 20
25.87474566204592
 11
-2.301396257795638
 21
26.24338808324695
  0
LINE
  5
83
100
AcDbEntity
  8
0
  6
ByLayer
 62
    7
370
   -1
100
AcDbLine
 10
-2.301396257795638
 20
26.24338808324695
 11
-2.156430627571751
 21
26.60695772005002
  0
LINE
  5
84
100
AcDbEntity
  8
0
  6
ByLayer
 62
    7
370
   -1
100
AcDbLine
 10
-2.156430627571751
 20
26.60695772005002
 11
-1.998798371185593
 21
26.96493338350542
  0
LINE
  5
85
100
AcDbEntity
  8
0
  6
ByLayer
 62
    7
370
   -1
100
AcDbLine
 10
-1.998798371185593
 20
26.96493338350542
 11
-1.828656438051425
 21
27.31679388466348
  0
LINE
  5
86
100
AcDbEntity
  8
0
  6
ByLayer
 62
    7
370
   -1
100
AcDbLine
 10
-1.828656438051425
 20
27.31679388466348
 11
-1.646161777583501
 21
27.66201803457454
  0
LINE
  5
87
100
AcDbEntity
  8
0
  6
ByLayer
 62
    7
370
   -1
100
AcDbLine
 10
-1.646161777583501
 20
27.66201803457454
 11
-1.451471339196068
 21
28.00008464428888
  0
LINE
  5
88
100
AcDbEntity
  8
0
  6
ByLayer
 62
    7
370
   -1
100
AcDbLine
 10
-1.451471339196068
 20
28.00008464428888
 11
-1.244742072303374
 21
28.33047252485684
  0
LINE
  5
89
100
AcDbEntity
  8
0
  6
ByLayer
 62
    7
370
   -1
100
AcDbLine
 10
-1.244742072303374
 20
28.33047252485684
 11
-1.026130926319702
 21
28.65266048732872
  0
LINE
  5
8A
100
AcDbEntity
  8
0
  6
ByLayer
 62
    7
370
   -1
100
AcDbLine
 10
-1.026130926319702
 20
28.65266048732872
 11
-0.79579485065927
 21
28.96612734275486
  0
LINE
  5
8B
100
AcDbEntity
  8
0
  6
ByLayer
 62
    7
370
   -1
100
AcDbLine
 10
-0.79579485065927
 20
28.96612734275486
 11
-0.5538907947363398
 21
29.27035190218556
  0
LINE
  5
8C
100
AcDbEntity
  8
0
  6
ByLayer
 62
    7
370
   -1
100
AcDbLine
 10
-0.5538907947363398
 20
29.27035190218556
 11
-0.3005757079651588
 21
29.56481297667114
  0
LINE
  5
8D
100
AcDbEntity
  8
0
  6
ByLayer
 62
    7
370
   -1
100
AcDbLine
 10
-0.3005757079651588
 20
29.56481297667114
 11
-0.03600653976000245
 21
29.84898937726192
  0
LINE
  5
8E
100
AcDbEntity
  8
0
  6
ByLayer
 62
    7
370
   -1
100
AcDbLine
 10
-0.03600653976000245
 20
29.84898937726192
 11
0.239659760464896
 21
30.12235991500823
  0
LINE
  5
8F
100
AcDbEntity
  8
0
  6
ByLayer
 62
    7
370
   -1
100
AcDbLine
 10
0.239659760464896
 20
30.12235991500823
 11
0.5262662432952894
 21
30.38440340096035
  0
LINE
  5
90
100
AcDbEntity
  8
0
  6
ByLayer
 62
    7
370
   -1
100
AcDbLine
 10
0.5262662432952894
 20
30.38440340096035
 11
0.8236559593169019
 21
30.63459864616864
  0
LINE
  5
91
100
AcDbEntity
  8
0
  6
ByLayer
 62
    7
370
   -1
100
AcDbLine
 10
0.8236559593169019
 20
30.63459864616864
 11
1.131671959115501
 21
30.87242446168339
  0
LINE
  5
92
100
AcDbEntity
  8
0
  6
ByLayer
 62
    7
370
   -1
100
AcDbLine
 10
1.131671959115501
 20
30.87242446168339
 11
1.450157293276824
 21
31.09735965855493
  0
LINE
  5
93
100
AcDbEntity
  8
0
  6
ByLayer
 62
    7
370
   -1
100
AcDbLine
 10
1.450157293276824
 20
31.09735965855493
 11
1.778955012386618
 21
31.30888304783358
  0
LINE
  5
94
100
AcDbEntity
  8
0
  6
ByLayer
 62
    7
370
   -1
100
AcDbLine
 10
1.778955012386618
 20
31.30888304783358
 11
2.117908167030635
 21
31.50647344056964
  0
LINE
  5
95
100
AcDbEntity
  8
0
  6
ByLayer
 62
    7
370
   -1
100
AcDbLine
 10
2.117908167030635
 20
31.50647344056964
 11
2.466859807794627
 21
31.68960964781343
  0
LINE
  5
96
100
AcDbEntity
  8
0
  6
ByLayer
 62
    7
370
   -1
100
AcDbLine
 10
2.466859807794627
 20
31.68960964781343
 11
2.825652985264334
 21
31.85777048061528
  0
LINE
  5
97
100
AcDbEntity
  8
0
  6
ByLayer
 62
    7
370
   -1
100
AcDbLine
 10
2.825652985264334
 20
31.85777048061528
 11
3.194130750025508
 21
32.01043475002551
  0
LINE
  5
98
100
AcDbEntity
  8
0
  6
ByLayer
 62
    7
370
   -1
100
AcDbLine
 10
3.194130750025508
 20
32.01043475002551
 11
3.599385042261418
 21
32.17645145070693
  0
LINE
  5
99
100
AcDbEntity
  8
0
  6
ByLayer
 62
    7
370
   -1
100
AcDbLine
 10
3.599385042261418
 20
32.17645145070693
 11
4.006871040045985
 21
32.33613037420731
  0
LINE
  5
9A
100
AcDbEntity
  8
0
  6
ByLayer
 62
    7
370
   -1
100
AcDbLine
 10
4.006871040045985
 20
32.33613037420731
 11
4.416499554026717
 21
32.48963378496895
  0
LINE
  5
9B
100
AcDbEntity
  8
0
  6
ByLayer
 62
    7
370
   -1
100
AcDbLine
 10
4.416499554026717
 20
32.48963378496895
 11
4.828181394851126
 21
32.63712394743413
  0
LINE
  5
9C
100
AcDbEntity
  8
0
  6
ByLayer
 62
    7
370
   -1
100
AcDbLine
 10
4.828181394851126
 20
32.63712394743413
 11
5.241827373166725
 21
32.77876312604511
  0
LINE
  5
9D
100
AcDbEntity
  8
0
  6
ByLayer
 62
    7
370
   -1
100
AcDbLine
 10
5.241827373166725
 20
32.77876312604511
 11
5.657348299621025
 21
32.91471358524421
  0
LINE
  5
9E
100
AcDbEntity
  8
0
  6
ByLayer
 62
    7
370
   -1
100
AcDbLine
 10
5.657348299621025
 20
32.91471358524421
 11
6.074654984861533
 21
33.04513758947367
  0
LINE
  5
9F
100
AcDbEntity
  8
0
  6
ByLayer
 62
    7
370
   -1
100
AcDbLine
 10
6.074654984861533
 20
33.04513758947367
 11
6.493658239535763
 21
33.17019740317579
  0
LINE
  5
A0
100
AcDbEntity
  8
0
  6
ByLayer
 62
    7
370
   -1
100
AcDbLine
 10
6.493658239535763
 20
33.17019740317579
 11
6.914268874291225
 21
33.29005529079286
  0
LINE
  5
A1
100
AcDbEntity
  8
0
  6
ByLayer
 62
    7
370
   -1
100
AcDbLine
 10
6.914268874291225
 20
33.29005529079286
 11
7.33639769977543
 21
33.40487351676714
  0
LINE
  5
A2
100
AcDbEntity
  8
0
  6
ByLayer
 62
    7
370
   -1
100
AcDbLine
 10
7.33639769977543
 20
33.40487351676714
 11
7.759955526635893
 21
33.51481434554093
  0
LINE
  5
A3
100
AcDbEntity
  8
0
  6
ByLayer
 62
    7
370
   -1
100
AcDbLine
 10
7.759955526635893
 20
33.51481434554093
 11
8.184853165520121
 21
33.62004004155651
  0
LINE
  5
A4
100
AcDbEntity
  8
0
  6
ByLayer
 62
    7
370
   -1
100
AcDbLine
 10
8.184853165520121
 20
33.62004004155651
 11
8.611001427075623
 21
33.72071286925615
  0
LINE
  5
A5
100
AcDbEntity
  8
0
  6
ByLayer
 62
    7
370
   -1
100
AcDbLine
 10
8.611001427075623
 20
33.72071286925615
 11
9.038311121949913
 21
33.81699509308214
  0
LINE
  5
A6
100
AcDbEntity
  8
0
  6
ByLayer
 62
    7
370
   -1
100
AcDbLine
 10
9.038311121949913
 20
33.81699509308214
 11
9.466693060790503
 21
33.90904897747676
  0
LINE
  5
A7
100
AcDbEntity
  8
0
  6
ByLayer
 62
    7
370
   -1
100
AcDbLine
 10
9.466693060790503
 20
33.90904897747676
 11
9.8960580542449
 21
33.99703678688228
  0
LINE
  5
A8
100
AcDbEntity
  8
0
  6
ByLayer
 62
    7
370
   -1
100
AcDbLine
 10
9.8960580542449
 20
33.99703678688228
 11
10.32631691296062
 21
34.081120785741
  0
LINE
  5
A9
100
AcDbEntity
  8
0
  6
ByLayer
 62
    7
370
   -1
100
AcDbLine
 10
10.32631691296062
 20
34.081120785741
 11
10.75738044758517
 21
34.16146323849519
  0
LINE
  5
AA
100
AcDbEntity
  8
0
  6
ByLayer
 62
    7
370
   -1
100
AcDbLine
 10
10.75738044758517
 20
34.16146323849519
 11
11.18915946876606
 21
34.23822640958713
  0
LINE
  5
AB
100
AcDbEntity
  8
0
  6
ByLayer
 62
    7
370
   -1
100
AcDbLine
 10
11.18915946876606
 20
34.23822640958713
 11
11.62156478715081
 21
34.3115725634591
  0
LINE
  5
AC
100
AcDbEntity
  8
0
  6
ByLayer
 62
    7
370
   -1
100
AcDbLine
 10
11.62156478715081
 20
34.3115725634591
 11
12.05450721338692
 21
34.38166396455339
  0
LINE
  5
AD
100
AcDbEntity
  8
0
  6
ByLayer
 62
    7
370
   -1
100
AcDbLine
 10
12.05450721338692
 20
34.38166396455339
 11
12.48789755812191
 21
34.44866287731227
  0
LINE
  5
AE
100
AcDbEntity
  8
0
  6
ByLayer
 62
    7
370
   -1
100
AcDbLine
 10
12.48789755812191
 20
34.44866287731227
 11
12.92164663200328
 21
34.51273156617805
  0
LINE
  5
AF
100
AcDbEntity
  8
0
  6
ByLayer
 62
    7
370
   -1
100
AcDbLine
 10
12.92164663200328
 20
34.51273156617805
 11
13.35566524567855
 21
34.57403229559297
  0
LINE
  5
B0
100
AcDbEntity
  8
0
  6
ByLayer
 62
    7
370
   -1
100
AcDbLine
 10
13.35566524567855
 20
34.57403229559297
 11
13.78986420979523
 21
34.63272732999933
  0
LINE
  5
B1
100
AcDbEntity
  8
0
  6
ByLayer
 62
    7
370
   -1
100
AcDbLine
 10
13.78986420979523
 20
34.63272732999933
 11
14.22415433500083
 21
34.68897893383942
  0
LINE
  5
B2
100
AcDbEntity
  8
0
  6
ByLayer
 62
    7
370
   -1
100
AcDbLine
 10
14.22415433500083
 20
34.68897893383942
 11
14.65844643194286
 21
34.74294937155551
  0
LINE
  5
B3
100
AcDbEntity
  8
0
  6
ByLayer
 62
    7
370
   -1
100
AcDbLine
 10
14.65844643194286
 20
34.74294937155551
 11
15.09265131126883
 21
34.79480090758988
  0
LINE
  5
B4
100
AcDbEntity
  8
0
  6
ByLayer
 62
    7
370
   -1
100
AcDbLine
 10
15.09265131126883
 20
34.79480090758988
 11
15.52667978362625
 21
34.84469580638481
  0
LINE
  5
B5
100
AcDbEntity
  8
0
  6
ByLayer
 62
    7
370
   -1
100
AcDbLine
 10
15.52667978362625
 20
34.84469580638481
 11
15.96044265966264
 21
34.8927963323826
  0
LINE
  5
B6
100
AcDbEntity
  8
0
  6
ByLayer
 62
    7
370
   -1
100
AcDbLine
 10
15.96044265966264
 20
34.8927963323826
 11
16.39385075002551
 21
34.93926475002552
  0
LINE
  5
B7
100
AcDbEntity
  8
0
  6
ByLayer
 62
    7
370
   -1
100
AcDbLine
 10
16.39385075002551
 20
34.93926475002552
 11
17.22658552965694
 21
35.01450418978921
  0
LINE
  5
B8
100
AcDbEntity
  8
0
  6
ByLayer
 62
    7
370
   -1
100
AcDbLine
 10
17.22658552965694
 20
35.01450418978921
 11
18.06084761350777
 21
35.0796194981038
  0
LINE
  5
B9
100
AcDbEntity
  8
0
  6
ByLayer
 62
    7
370
   -1
100
AcDbLine
 10
18.06084761350777
 20
35.0796194981038
 11
18.89642361901278
 21
35.13445615850458
  0
LINE
  5
BA
100
AcDbEntity
  8
0
  6
ByLayer
 62
    7
370
   -1
100
AcDbLine
 10
18.89642361901278
 20
35.13445615850458
 11
19.73310016360679
 21
35.17885965452688
  0
LINE
  5
BB
100
AcDbEntity
  8
0
  6
ByLayer
 62
    7
370
   -1
100
AcDbLine
 10
19.73310016360679
 20
35.17885965452688
 11
20.57066386472458
 21
35.21267546970595
  0
LINE
  5
BC
100
AcDbEntity
  8
0
  6
ByLayer
 62
    7
370
   -1
100
AcDbLine
 10
20.57066386472458
 20
35.21267546970595
 11
21.40890133980095
 21
35.23574908757713
  0
LINE
  5
BD
100
AcDbEntity
  8
0
  6
ByLayer
 62
    7
370
   -1
100
AcDbLine
 10
21.40890133980095
 20
35.23574908757713
 11
22.24759920627069
 21
35.24792599167568
  0
LINE
  5
BE
100
AcDbEntity
  8
0
  6
ByLayer
 62
    7
370
   -1
100
AcDbLine
 10
22.24759920627069
 20
35.24792599167568
 11
23.08654408156859
 21
35.24905166553691
  0
LINE
  5
BF
100
AcDbEntity
  8
0
  6
ByLayer
 62
    7
370
   -1
100
AcDbLine
 10
23.08654408156859
 20
35.24905166553691
 11
23.92552258312946
 21
35.23897159269611
  0
LINE
  5
C0
100
AcDbEntity
  8
0
  6
ByLayer
 62
    7
370
   -1
100
AcDbLine
 10
23.92552258312946
 20
35.23897159269611
 11
24.7643213283881
 21
35.21753125668859
  0
LINE
  5
C1
100
AcDbEntity
  8
0
  6
ByLayer
 62
    7
370
   -1
100
AcDbLine
 10
24.7643213283881
 20
35.21753125668859
 11
25.60272693477929
 21
35.18457614104965
  0
LINE
  5
C2
100
AcDbEntity
  8
0
  6
ByLayer
 62
    7
370
   -1
100
AcDbLine
 10
25.60272693477929
 20
35.18457614104965
 11
26.44052601973783
 21
35.13995172931456
  0
LINE
  5
C3
100
AcDbEntity
  8
0
  6
ByLayer
 62
    7
370
   -1
100
AcDbLine
 10
26.44052601973783
 20
35.13995172931456
 11
27.27750520069853
 21
35.08350350501863
  0
LINE
  5
C4
100
AcDbEntity
  8
0
  6
ByLayer
 62
    7
370
   -1
100
AcDbLine
 10
27.27750520069853
 20
35.08350350501863
 11
28.11345109509616
 21
35.01507695169716
  0
LINE
  5
C5
100
AcDbEntity
  8
0
  6
ByLayer
 62
    7
370
   -1
100
AcDbLine
 10
28.11345109509616
 20
35.01507695169716
 11
28.94815032036554
 21
34.93451755288544
  0
LINE
  5
C6
100
AcDbEntity
  8
0
  6
ByLayer
 62
    7
370
   -1
100
AcDbLine
 10
28.94815032036554
 20
34.93451755288544
 11
29.78138949394145
 21
34.84167079211876
  0
LINE
  5
C7
100
AcDbEntity
  8
0
  6
ByLayer
 62
    7
370
   -1
100
AcDbLine
 10
29.78138949394145
 20
34.84167079211876
 11
30.6129552332587
 21
34.73638215293243
  0
LINE
  5
C8
100
AcDbEntity
  8
0
  6
ByLayer
 62
    7
370
   -1
100
AcDbLine
 10
30.6129552332587
 20
34.73638215293243
 11
31.44263415575206
 21
34.61849711886174
  0
LINE
  5
C9
100
AcDbEntity
  8
0
  6
ByLayer
 62
    7
370
   -1
100
AcDbLine
 10
31.44263415575206
 20
34.61849711886174
 11
32.27021287885636
 21
34.48786117344198
  0
LINE
  5
CA
100
AcDbEntity
  8
0
  6
ByLayer
 62
    7
370
   -1
100
AcDbLine
 10
32.27021287885636
 20
34.48786117344198
 11
33.09547802000637
 21
34.34431980020845
  0
LINE
  5
CB
100
AcDbEntity
  8
0
  6
ByLayer
 62
    7
370
   -1
100
AcDbLine
 10
33.09547802000637
 20
34.34431980020845
 11
33.9182161966369
 21
34.18771848269645
  0
LINE
  5
CC
100
AcDbEntity
  8
0
  6
ByLayer
 62
    7
370
   -1
100
AcDbLine
 10
33.9182161966369
 20
34.18771848269645
 11
34.73821402618273
 21
34.01790270444128
  0
LINE
  5
CD
100
AcDbEntity
  8
0
  6
ByLayer
 62
    7
370
   -1
100
AcDbLine
 10
34.73821402618273
 20
34.01790270444128
 11
35.55525812607867
 21
33.83471794897822
  0
LINE
  5
CE
100
AcDbEntity
  8
0
  6
ByLayer
 62
    7
370
   -1
100
AcDbLine
 10
35.55525812607867
 20
33.83471794897822
 11
36.36913511375951
 21
33.63800969984257
  0
LINE
  5
CF
100
AcDbEntity
  8
0
  6
ByLayer
 62
    7
370
   -1
100
AcDbLine
 10
36.36913511375951
 20
33.63800969984257
 11
37.17963160666005
 21
33.42762344056964
  0
LINE
  5
D0
100
AcDbEntity
  8
0
  6
ByLayer
 62
    7
370
   -1
100
AcDbLine
 10
37.17963160666005
 20
33.42762344056964
 11
37.98653422221508
 21
33.20340465469471
  0
LINE
  5
D1
100
AcDbEntity
  8
0
  6
ByLayer
 62
    7
370
   -1
100
AcDbLine
 10
37.98653422221508
 20
33.20340465469471
 11
38.78962957785941
 21
32.96519882575308
  0
LINE
  5
D2
100
AcDbEntity
  8
0
  6
ByLayer
 62
    7
370
   -1
100
AcDbLine
 10
38.78962957785941
 20
32.96519882575308
 11
39.58870429102781
 21
32.71285143728005
  0
LINE
  5
D3
100
AcDbEntity
  8
0
  6
ByLayer
 62
    7
370
   -1
100
AcDbLine
 10
39.58870429102781
 20
32.71285143728005
 11
40.38354497915509
 21
32.44620797281092
  0
LINE
  5
D4
100
AcDbEntity
  8
0
  6
ByLayer
 62
    7
370
   -1
100
AcDbLine
 10
40.38354497915509
 20
32.44620797281092
 11
41.17393825967606
 21
32.16511391588098
  0
LINE
  5
D5
100
AcDbEntity
  8
0
  6
ByLayer
 62
    7
370
   -1
100
AcDbLine
 10
41.17393825967606
 20
32.16511391588098
 11
41.95967075002551
 21
31.86941475002551
  0
LINE
  5
D6
100
AcDbEntity
  8
0
  6
ByLayer
 62
    7
370
   -1
100
AcDbLine
 10
41.95967075002551
 20
31.86941475002551
 11
42.2502662526941
 21
31.73997156147864
  0
LINE
  5
D7
100
AcDbEntity
  8
0
  6
ByLayer
 62
    7
370
   -1
100
AcDbLine
 10
42.2502662526941
 20
31.73997156147864
 11
42.54469774744084
 21
31.60931411157767
  0
LINE
  5
D8
100
AcDbEntity
  8
0
  6
ByLayer
 62
    7
370
   -1
100
AcDbLine
 10
42.54469774744084
 20
31.60931411157767
 11
42.84223335953845
 21
31.47704928360949
  0
LINE
  5
D9
100
AcDbEntity
  8
0
  6
ByLayer
 62
    7
370
   -1
100
AcDbLine
 10
42.84223335953845
 20
31.47704928360949
 11
43.14214121425967
 21
31.342783960861
  0
LINE
  5
DA
100
AcDbEntity
  8
0
  6
ByLayer
 62
    7
370
   -1
100
AcDbLine
 10
43.14214121425967
 20
31.342783960861
 11
43.44368943687724
 21
31.20612502661912
  0
LINE
  5
DB
100
AcDbEntity
  8
0
  6
ByLayer
 62
    7
370
   -1
100
AcDbLine
 10
43.44368943687724
 20
31.20612502661912
 11
43.74614615266389
 21
31.06667936417073
  0
LINE
  5
DC
100
AcDbEntity
  8
0
  6
ByLayer
 62
    7
370
   -1
100
AcDbLine
 10
43.74614615266389
 20
31.06667936417073
 11
44.04877948689234
 21
30.92405385680273
  0
LINE
  5
DD
100
AcDbEntity
  8
0
  6
ByLayer
 62
    7
370
   -1
100
AcDbLine
 10
44.04877948689234
 20
30.92405385680273
 11
44.35085756483535
 21
30.77785538780203
  0
LINE
  5
DE
100
AcDbEntity
  8
0
  6
ByLayer
 62
    7
370
   -1
100
AcDbLine
 10
44.35085756483535
 20
30.77785538780203
 11
44.65164851176563
 21
30.6276908404555
  0
LINE
  5
DF
100
AcDbEntity
  8
0
  6
ByLayer
 62
    7
370
   -1
100
AcDbLine
 10
44.65164851176563
 20
30.6276908404555
 11
44.95042045295592
 21
30.47316709805008
  0
LINE
  5
E0
100
AcDbEntity
  8
0
  6
ByLayer
 62
    7
370
   -1
100
AcDbLine
 10
44.95042045295592
 20
30.47316709805008
 11
45.24644151367896
 21
30.31389104387265
  0
LINE
  5
E1
100
AcDbEntity
  8
0
  6
ByLayer
 62
    7
370
   -1
100
AcDbLine
 10
45.24644151367896
 20
30.31389104387265
 11
45.53897981920748
 21
30.1494695612101
  0
LINE
  5
E2
100
AcDbEntity
  8
0
  6
ByLayer
 62
    7
370
   -1
100
AcDbLine
 10
45.53897981920748
 20
30.1494695612101
 11
45.8273034948142
 21
29.97950953334934
  0
LINE
  5
E3
100
AcDbEntity
  8
0
  6
ByLayer
 62
    7
370
   -1
100
AcDbLine
 10
45.8273034948142
 20
29.97950953334934
 11
46.11068066577187
 21
29.80361784357726
  0
LINE
  5
E4
100
AcDbEntity
  8
0
  6
ByLayer
 62
    7
370
   -1
100
AcDbLine
 10
46.11068066577187
 20
29.80361784357726
 11
46.38837945735322
 21
29.62140137518076
  0
LINE
  5
E5
100
AcDbEntity
  8
0
  6
ByLayer
 62
    7
370
   -1
100
AcDbLine
 10
46.38837945735322
 20
29.62140137518076
 11
46.65966799483098
 21
29.43246701144675
  0
LINE
  5
E6
100
AcDbEntity
  8
0
  6
ByLayer
 62
    7
370
   -1
100
AcDbLine
 10
46.65966799483098
 20
29.43246701144675
 11
46.92381440347789
 21
29.23642163566212
  0
LINE
  5
E7
100
AcDbEntity
  8
0
  6
ByLayer
 62
    7
370
   -1
100
AcDbLine
 10
46.92381440347789
 20
29.23642163566212
 11
47.18008680856668
 21
29.03287213111376
  0
LINE
  5
E8
100
AcDbEntity
  8
0
  6
ByLayer
 62
    7
370
   -1
100
AcDbLine
 10
47.18008680856668
 20
29.03287213111376
 11
47.42775333537007
 21
28.82142538108859
  0
LINE
  5
E9
100
AcDbEntity
  8
0
  6
ByLayer
 62
    7
370
   -1
100
AcDbLine
 10
47.42775333537007
 20
28.82142538108859
 11
47.66608210916081
 21
28.60168826887349
  0
LINE
  5
EA
100
AcDbEntity
  8
0
  6
ByLayer
 62
    7
370
   -1
100
AcDbLine
 10
47.66608210916081
 20
28.60168826887349
 11
47.89434125521164
 21
28.37326767775536
  0
LINE
  5
EB
100
AcDbEntity
  8
0
  6
ByLayer
 62
    7
370
   -1
100
AcDbLine
 10
47.89434125521164
 20
28.37326767775536
 11
48.11179889879527
 21
28.13577049102112
  0
LINE
  5
EC
100
AcDbEntity
  8
0
  6
ByLayer
 62
    7
370
   -1
100
AcDbLine
 10
48.11179889879527
 20
28.13577049102112
 11
48.31772316518445
 21
27.88880359195764
  0
LINE
  5
ED
100
AcDbEntity
  8
0
  6
ByLayer
 62
    7
370
   -1
100
AcDbLine
 10
48.31772316518445
 20
27.88880359195764
 11
48.5113821796519
 21
27.63197386385184
  0
LINE
  5
EE
100
AcDbEntity
  8
0
  6
ByLayer
 62
    7
370
   -1
100
AcDbLine
 10
48.5113821796519
 20
27.63197386385184
 11
48.69204406747038
 21
27.36488818999061
  0
LINE
  5
EF
100
AcDbEntity
  8
0
  6
ByLayer
 62
    7
370
   -1
100
AcDbLine
 10
48.69204406747038
 20
27.36488818999061
 11
48.85897695391259
 21
27.08715345366084
  0
LINE
  5
F0
100
AcDbEntity
  8
0
  6
ByLayer
 62
    7
370
   -1
100
AcDbLine
 10
48.85897695391259
 20
27.08715345366084
 11
49.01144896425128
 21
26.79837653814945
  0
LINE
  5
F1
100
AcDbEntity
  8
0
  6
ByLayer
 62
    7
370
   -1
100
AcDbLine
 10
49.01144896425128
 20
26.79837653814945
 11
49.14872822375919
 21
26.49816432674332
  0
LINE
  5
F2
100
AcDbEntity
  8
0
  6
ByLayer
 62
    7
370
   -1
100
AcDbLine
 10
49.14872822375919
 20
26.49816432674332
 11
49.27008285770903
 21
26.18612370272935
  0
LINE
  5
F3
100
AcDbEntity
  8
0
  6
ByLayer
 62
    7
370
   -1
100
AcDbLine
 10
49.27008285770903
 20
26.18612370272935
 11
49.37478099137357
 21
25.86186154939446
  0
LINE
  5
F4
100
AcDbEntity
  8
0
  6
ByLayer
 62
    7
370
   -1
100
AcDbLine
 10
49.37478099137357
 20
25.86186154939446
 11
49.46209075002551
 21
25.52498475002551
  0
LINE
  5
F5
100
AcDbEntity
  8
0
  6
ByLayer
 62
    7
370
   -1
100
AcDbLine
 10
49.46209075002551
 20
25.52498475002551
 11
49.51853972824041
 21
24.93377777442886
  0
LINE
  5
F6
100
AcDbEntity
  8
0
  6
ByLayer
 62
    7
370
   -1
100
AcDbLine
 10
49.51853972824041
 20
24.93377777442886
 11
49.55664711268537
 21
24.34374018354571
  0
LINE
  5
F7
100
AcDbEntity
  8
0
  6
ByLayer
 62
    7
370
   -1
100
AcDbLine
 10
49.55664711268537
 20
24.34374018354571
 11
49.57705422322211
 21
23.75490698123629
  0
LINE
  5
F8
100
AcDbEntity
  8
0
  6
ByLayer
 62
    7
370
   -1
100
AcDbLine
 10
49.57705422322211
 20
23.75490698123629
 11
49.58040237971233
 21
23.16731317136082
  0
LINE
  5
F9
100
AcDbEntity
  8
0
  6
ByLayer
 62
    7
370
   -1
100
AcDbLine
 10
49.58040237971233
 20
23.16731317136082
 11
49.56733290201772
 21
22.58099375777953
  0
LINE
  5
FA
100
AcDbEntity
  8
0
  6
ByLayer
 62
    7
370
   -1
100
AcDbLine
 10
49.56733290201772
 20
22.58099375777953
 11
49.53848711
 21
21.99598374435266
  0
LINE
  5
FB
100
AcDbEntity
  8
0
  6
ByLayer
 62
    7
370
   -1
100
AcDbLine
 10
49.53848711
 20
21.99598374435266
 11
49.49450632352086
 21
21.41231813494042
  0
LINE
  5
FC
100
AcDbEntity
  8
0
  6
ByLayer
 62
    7
370
   -1
100
AcDbLine
 10
49.49450632352086
 20
21.41231813494042
 11
49.43603186244201
 21
20.83003193340305
  0
LINE
  5
FD
100
AcDbEntity
  8
0
  6
ByLayer
 62
    7
370
   -1
100
AcDbLine
 10
49.43603186244201
 20
20.83003193340305
 11
49.36370504662516
 21
20.24916014360075
  0
LINE
  5
FE
100
AcDbEntity
  8
0
  6
ByLayer
 62
    7
370
   -1
100
AcDbLine
 10
49.36370504662516
 20
20.24916014360075
 11
49.27816719593199
 21
19.66973776939378
  0
LINE
  5
FF
100
AcDbEntity
  8
0
  6
ByLayer
 62
    7
370
   -1
100
AcDbLine
 10
49.27816719593199
 20
19.66973776939378
 11
49.18005963022423
 21
19.09179981464235
  0
LINE
  5
100
100
AcDbEntity
  8
0
  6
ByLayer
 62
    7
370
   -1
100
AcDbLine
 10
49.18005963022423
 20
19.09179981464235
 11
49.07002366936356
 21
18.51538128320668
  0
LINE
  5
101
100
AcDbEntity
  8
0
  6
ByLayer
 62
    7
370
   -1
100
AcDbLine
 10
49.07002366936356
 20
18.51538128320668
 11
48.94870063321171
 21
17.940517178947
  0
LINE
  5
102
100
AcDbEntity
  8
0
  6
ByLayer
 62
    7
370
   -1
100
AcDbLine
 10
48.94870063321171
 20
17.940517178947
 11
48.81673184163036
 21
17.36724250572355
  0
LINE
  5
103
100
AcDbEntity
  8
0
  6
ByLayer
 62
    7
370
   -1
100
AcDbLine
 10
48.81673184163036
 20
17.36724250572355
 11
48.67475861448122
 21
16.79559226739654
  0
LINE
  5
104
100
AcDbEntity
  8
0
  6
ByLayer
 62
    7
370
   -1
100
AcDbLine
 10
48.67475861448122
 20
16.79559226739654
 11
48.52342227162599
 21
16.22560146782619
  0
LINE
  5
105
100
AcDbEntity
  8
0
  6
ByLayer
 62
    7
370
   -1
100
AcDbLine
 10
48.52342227162599
 20
16.22560146782619
 11
48.36336413292639
 21
15.65730511087276
  0
LINE
  5
106
100
AcDbEntity
  8
0
  6
ByLayer
 62
    7
370
   -1
100
AcDbLine
 10
48.36336413292639
 20
15.65730511087276
 11
48.1952255182441
 21
15.09073820039644
  0
LINE
  5
107
100
AcDbEntity
  8
0
  6
ByLayer
 62
    7
370
   -1
100
AcDbLine
 10
48.1952255182441
 20
15.09073820039644
 11
48.01964774744084
 21
14.52593574025747
  0
LINE
  5
108
100
AcDbEntity
  8
0
  6
ByLayer
 62
    7
370
   -1
100
AcDbLine
 10
48.01964774744084
 20
14.52593574025747
 11
47.8372721403783
 21
13.96293273431607
  0
LINE
  5
109
100
AcDbEntity
  8
0
  6
ByLayer
 62
    7
370
   -1
100
AcDbLine
 10
47.8372721403783
 20
13.96293273431607
 11
47.6487400169182
 21
13.40176418643249
  0
LINE
  5
10A
100
AcDbEntity
  8
0
  6
ByLayer
 62
    7
370
   -1
100
AcDbLine
 10
47.6487400169182
 20
13.40176418643249
 11
47.45469269692222
 21
12.84246510046693
  0
LINE
  5
10B
100
AcDbEntity
  8
0
  6
ByLayer
 62
    7
370
   -1
100
AcDbLine
 10
47.45469269692222
 20
12.84246510046693
 11
47.2557715002521
 21
12.28507048027962
  0
LINE
  5
10C
100
AcDbEntity
  8
0
  6
ByLayer
 62
    7
370
   -1
100
AcDbLine
 10
47.2557715002521
 20
12.28507048027962
 11
47.0526177467695
 21
11.7296153297308
  0
LINE
  5
10D
100
AcDbEntity
  8
0
  6
ByLayer
 62
    7
370
   -1
100
AcDbLine
 10
47.0526177467695
 20
11.7296153297308
 11
46.84587275633614
 21
11.17613465268069
  0
LINE
  5
10E
100
AcDbEntity
  8
0
  6
ByLayer
 62
    7
370
   -1
100
AcDbLine
 10
46.84587275633614
 20
11.17613465268069
 11
46.63617784881374
 21
10.6246634529895
  0
LINE
  5
10F
100
AcDbEntity
  8
0
  6
ByLayer
 62
    7
370
   -1
100
AcDbLine
 10
46.63617784881374
 20
10.6246634529895
 11
46.42417434406399
 21
10.07523673451748
  0
LINE
  5
110
100
AcDbEntity
  8
0
  6
ByLayer
 62
    7
370
   -1
100
AcDbLine
 10
46.42417434406399
 20
10.07523673451748
 11
46.21050356194858
 21
9.527889501124847
  0
LINE
  5
111
100
AcDbEntity
  8
0
  6
ByLayer
 62
    7
370
   -1
100
AcDbLine
 10
46.21050356194858
 20
9.527889501124847
 11
45.99580682232923
 21
8.982656756671824
  0
LINE
  5
112
100
AcDbEntity
  8
0
  6
ByLayer
 62
    7
370
   -1
100
AcDbLine
 10
45.99580682232923
 20
8.982656756671824
 11
45.78072544506765
 21
8.439573505018641
  0
LINE
  5
113
100
AcDbEntity
  8
0
  6
ByLayer
 62
    7
370
   -1
100
AcDbLine
 10
45.78072544506765
 20
8.439573505018641
 11
45.56590075002551
 21
7.898674750025512
  0
LINE
  5
114
100
AcDbEntity
  8
0
  6
ByLayer
 62
    7
370
   -1
100
AcDbLine
 10
45.56590075002551
 20
7.898674750025512
 11
45.35859589386089
 21
7.440963122352725
  0
LINE
  5
115
100
AcDbEntity
  8
0
  6
ByLayer
 62
    7
370
   -1
100
AcDbLine
 10
45.35859589386089
 20
7.440963122352725
 11
45.14118090174918
 21
6.985642352992853
  0
LINE
  5
116
100
AcDbEntity
  8
0
  6
ByLayer
 62
    7
370
   -1
100
AcDbLine
 10
45.14118090174918
 20
6.985642352992853
 11
44.91367739632808
 21
6.533295870498137
  0
LINE
  5
117
100
AcDbEntity
  8
0
  6
ByLayer
 62
    7
370
   -1
100
AcDbLine
 10
44.91367739632808
 20
6.533295870498137
 11
44.67610700023531
 21
6.084507103420833
  0
LINE
  5
118
100
AcDbEntity
  8
0
  6
ByLayer
 62
    7
370
   -1
100
AcDbLine
 10
44.67610700023531
 20
6.084507103420833
 11
44.42849133610855
 21
5.639859480313184
  0
LINE
  5
119
100
AcDbEntity
  8
0
  6
ByLayer
 62
    7
370
   -1
100
AcDbLine
 10
44.42849133610855
 20
5.639859480313184
 11
44.17085202658554
 21
5.19993642972744
  0
LINE
  5
11A
100
AcDbEntity
  8
0
  6
ByLayer
 62
    7
370
   -1
100
AcDbLine
 10
44.17085202658554
 20
5.19993642972744
 11
43.90321069430398
 21
4.765321380215841
  0
LINE
  5
11B
100
AcDbEntity
  8
0
  6
ByLayer
 62
    7
370
   -1
100
AcDbLine
 10
43.90321069430398
 20
4.765321380215841
 11
43.62558896190158
 21
4.33659776033064
  0
LINE
  5
11C
100
AcDbEntity
  8
0
  6
ByLayer
 62
    7
370
   -1
100
AcDbLine
 10
43.62558896190158
 20
4.33659776033064
 11
43.33800845201604
 21
3.914348998624082
  0
LINE
  5
11D
100
AcDbEntity
  8
0
  6
ByLayer
 62
    7
370
   -1
100
AcDbLine
 10
43.33800845201604
 20
3.914348998624082
 11
43.04049078728508
 21
3.499158523648422
  0
LINE
  5
11E
100
AcDbEntity
  8
0
  6
ByLayer
 62
    7
370
   -1
100
AcDbLine
 10
43.04049078728508
 20
3.499158523648422
 11
42.73305759034641
 21
3.091609763955898
  0
LINE
  5
11F
100
AcDbEntity
  8
0
  6
ByLayer
 62
    7
370
   -1
100
AcDbLine
 10
42.73305759034641
 20
3.091609763955898
 11
42.41573048383773
 21
2.692286148098759
  0
LINE
  5
120
100
AcDbEntity
  8
0
  6
ByLayer
 62
    7
370
   -1
100
AcDbLine
 10
42.41573048383773
 20
2.692286148098759
 11
42.08853109039676
 21
2.301771104629253
  0
LINE
  5
121
100
AcDbEntity
  8
0
  6
ByLayer
 62
    7
370
   -1
100
AcDbLine
 10
42.08853109039676
 20
2.301771104629253
 11
41.7514810326612
 21
1.920648062099634
  0
LINE
  5
122
100
AcDbEntity
  8
0
  6
ByLayer
 62
    7
370
   -1
100
AcDbLine
 10
41.7514810326612
 20
1.920648062099634
 11
41.40460193326877
 21
1.549500449062137
  0
LINE
  5
123
100
AcDbEntity
  8
0
  6
ByLayer
 62
    7
370
   -1
100
AcDbLine
 10
41.40460193326877
 20
1.549500449062137
 11
41.04791541485717
 21
1.188911694069017
  0
LINE
  5
124
100
AcDbEntity
  8
0
  6
ByLayer
 62
    7
370
   -1
100
AcDbLine
 10
41.04791541485717
 20
1.188911694069017
 11
40.68144310006412
 21
0.839465225672523
  0
LINE
  5
125
100
AcDbEntity
  8
0
  6
ByLayer
 62
    7
370
   -1
100
AcDbLine
 10
40.68144310006412
 20
0.839465225672523
 11
40.30520661152731
 21
0.5017444724248996
  0
LINE
  5
126
100
AcDbEntity
  8
0
  6
ByLayer
 62
    7
370
   -1
100
AcDbLine
 10
40.30520661152731
 20
0.5017444724248996
 11
39.91922757188446
 21
0.1763328628783931
  0
LINE
  5
127
100
AcDbEntity
  8
0
  6
ByLayer
 62
    7
370
   -1
100
AcDbLine
 10
39.91922757188446
 20
0.1763328628783931
 11
39.52352760377329
 21
-0.1361861744147497
  0
LINE
  5
128
100
AcDbEntity
  8
0
  6
ByLayer
 62
    7
370
   -1
100
AcDbLine
 10
39.52352760377329
 20
-0.1361861744147497
 11
39.11812832983149
 21
-0.4352292109022819
  0
LINE
  5
129
100
AcDbEntity
  8
0
  6
ByLayer
 62
    7
370
   -1
100
AcDbLine
 10
39.11812832983149
 20
-0.4352292109022819
 11
38.70305137269679
 21
-0.7202128180319498
  0
LINE
  5
12A
100
AcDbEntity
  8
0
  6
ByLayer
 62
    7
370
   -1
100
AcDbLine
 10
38.70305137269679
 20
-0.7202128180319498
 11
38.27831835500688
 21
-0.9905535672515136
  0
LINE
  5
12B
100
AcDbEntity
  8
0
  6
ByLayer
 62
    7
370
   -1
100
AcDbLine
 10
38.27831835500688
 20
-0.9905535672515136
 11
37.84395089939949
 21
-1.245668030008723
  0
LINE
  5
12C
100
AcDbEntity
  8
0
  6
ByLayer
 62
    7
370
   -1
100
AcDbLine
 10
37.84395089939949
 20
-1.245668030008723
 11
37.39997062851231
 21
-1.484972777751327
  0
LINE
  5
12D
100
AcDbEntity
  8
0
  6
ByLayer
 62
    7
370
   -1
100
AcDbLine
 10
37.39997062851231
 20
-1.484972777751327
 11
36.94639916498306
 21
-1.707884381927087
  0
LINE
  5
12E
100
AcDbEntity
  8
0
  6
ByLayer
 62
    7
370
   -1
100
AcDbLine
 10
36.94639916498306
 20
-1.707884381927087
 11
36.48325813144943
 21
-1.913819413983749
  0
LINE
  5
12F
100
AcDbEntity
  8
0
  6
ByLayer
 62
    7
370
   -1
100
AcDbLine
 10
36.48325813144943
 20
-1.913819413983749
 11
36.01056915054917
 21
-2.102194445369065
  0
LINE
  5
130
100
AcDbEntity
  8
0
  6
ByLayer
 62
    7
370
   -1
100
AcDbLine
 10
36.01056915054917
 20
-2.102194445369065
 11
35.52835384491995
 21
-2.272426047530793
  0
LINE
  5
131
100
AcDbEntity
  8
0
  6
ByLayer
 62
    7
370
   -1
100
AcDbLine
 10
35.52835384491995
 20
-2.272426047530793
 11
35.0366338371995
 21
-2.423930791916682
  0
LINE
  5
132
100
AcDbEntity
  8
0
  6
ByLayer
 62
    7
370
   -1
100
AcDbLine
 10
35.0366338371995
 20
-2.423930791916682
 11
34.53543075002551
 21
-2.556125249974489
  0
LINE
  5
133
100
AcDbEntity
  8
0
  6
ByLayer
 62
    7
370
   -1
100
AcDbLine
 10
34.53543075002551
 20
-2.556125249974489
 11
33.73983014749454
 21
-2.799236594340236
  0
LINE
  5
134
100
AcDbEntity
  8
0
  6
ByLayer
 62
    7
370
   -1
100
AcDbLine
 10
33.73983014749454
 20
-2.799236594340236
 11
32.93951989439797
 21
-3.028705661508173
  0
LINE
  5
135
100
AcDbEntity
  8
0
  6
ByLayer
 62
    7
370
   -1
100
AcDbLine
 10
32.93951989439797
 20
-3.028705661508173
 11
32.13480280635124
 21
-3.244411776777884
  0
LINE
  5
136
100
AcDbEntity
  8
0
  6
ByLayer
 62
    7
370
   -1
100
AcDbLine
 10
32.13480280635124
 20
-3.244411776777884
 11
31.32598169896982
 21
-3.446234265448961
  0
LINE
  5
137
100
AcDbEntity
  8
0
  6
ByLayer
 62
    7
370
   -1
100
AcDbLine
 10
31.32598169896982
 20
-3.446234265448961
 11
30.51335938786915
 21
-3.634052452820985
  0
LINE
  5
138
100
AcDbEntity
  8
0
  6
ByLayer
 62
    7
370
   -1
100
AcDbLine
 10
30.51335938786915
 20
-3.634052452820985
 11
29.69723868866469
 21
-3.807745664193547
  0
LINE
  5
139
100
AcDbEntity
  8
0
  6
ByLayer
 62
    7
370
   -1
100
AcDbLine
 10
29.69723868866469
 20
-3.807745664193547
 11
28.8779224169719
 21
-3.967193224866232
  0
LINE
  5
13A
100
AcDbEntity
  8
0
  6
ByLayer
 62
    7
370
   -1
100
AcDbLine
 10
28.8779224169719
 20
-3.967193224866232
 11
28.05571338840623
 21
-4.112274460138632
  0
LINE
  5
13B
100
AcDbEntity
  8
0
  6
ByLayer
 62
    7
370
   -1
100
AcDbLine
 10
28.05571338840623
 20
-4.112274460138632
 11
27.23091441858313
 21
-4.242868695310328
  0
LINE
  5
13C
100
AcDbEntity
  8
0
  6
ByLayer
 62
    7
370
   -1
100
AcDbLine
 10
27.23091441858313
 20
-4.242868695310328
 11
26.40382832311806
 21
-4.358855255680908
  0
LINE
  5
13D
100
AcDbEntity
  8
0
  6
ByLayer
 62
    7
370
   -1
100
AcDbLine
 10
26.40382832311806
 20
-4.358855255680908
 11
25.57475791762646
 21
-4.460113466549963
  0
LINE
  5
13E
100
AcDbEntity
  8
0
  6
ByLayer
 62
    7
370
   -1
100
AcDbLine
 10
25.57475791762646
 20
-4.460113466549963
 11
24.74400601772381
 21
-4.546522653217078
  0
LINE
  5
13F
100
AcDbEntity
  8
0
  6
ByLayer
 62
    7
370
   -1
100
AcDbLine
 10
24.74400601772381
 20
-4.546522653217078
 11
23.91187543902554
 21
-4.617962140981838
  0
LINE
  5
140
100
AcDbEntity
  8
0
  6
ByLayer
 62
    7
370
   -1
100
AcDbLine
 10
23.91187543902554
 20
-4.617962140981838
 11
23.07866899714713
 21
-4.674311255143834
  0
LINE
  5
141
100
AcDbEntity
  8
0
  6
ByLayer
 62
    7
370
   -1
100
AcDbLine
 10
23.07866899714713
 20
-4.674311255143834
 11
22.24468950770401
 21
-4.715449321002648
  0
LINE
  5
142
100
AcDbEntity
  8
0
  6
ByLayer
 62
    7
370
   -1
100
AcDbLine
 10
22.24468950770401
 20
-4.715449321002648
 11
21.41023978631164
 21
-4.741255663857874
  0
LINE
  5
143
100
AcDbEntity
  8
0
  6
ByLayer
 62
    7
370
   -1
100
AcDbLine
 10
21.41023978631164
 20
-4.741255663857874
 11
20.57562264858548
 21
-4.751609609009094
  0
LINE
  5
144
100
AcDbEntity
  8
0
  6
ByLayer
 62
    7
370
   -1
100
AcDbLine
 10
20.57562264858548
 20
-4.751609609009094
 11
19.74114091014098
 21
-4.746390481755899
  0
LINE
  5
145
100
AcDbEntity
  8
0
  6
ByLayer
 62
    7
370
   -1
100
AcDbLine
 10
19.74114091014098
 20
-4.746390481755899
 11
18.90709738659361
 21
-4.72547760739787
  0
LINE
  5
146
100
AcDbEntity
  8
0
  6
ByLayer
 62
    7
370
   -1
100
AcDbLine
 10
18.90709738659361
 20
-4.72547760739787
 11
18.0737948935588
 21
-4.6887503112346
  0
LINE
  5
147
100
AcDbEntity
  8
0
  6
ByLayer
 62
    7
370
   -1
100
AcDbLine
 10
18.0737948935588
 20
-4.6887503112346
 11
17.24153624665201
 21
-4.636087918565671
  0
LINE
  5
148
100
AcDbEntity
  8
0
  6
ByLayer
 62
    7
370
   -1
100
AcDbLine
 10
17.24153624665201
 20
-4.636087918565671
 11
16.41062426148871
 21
-4.567369754690677
  0
LINE
  5
149
100
AcDbEntity
  8
0
  6
ByLayer
 62
    7
370
   -1
100
AcDbLine
 10
16.41062426148871
 20
-4.567369754690677
 11
15.58136175368434
 21
-4.482475144909198
  0
LINE
  5
14A
100
AcDbEntity
  8
0
  6
ByLayer
 62
    7
370
   -1
100
AcDbLine
 10
15.58136175368434
 20
-4.482475144909198
 11
14.75405153885436
 21
-4.381283414520826
  0
LINE
  5
14B
100
AcDbEntity
  8
0
  6
ByLayer
 62
    7
370
   -1
100
AcDbLine
 10
14.75405153885436
 20
-4.381283414520826
 11
13.92899643261422
 21
-4.263673888825149
  0
LINE
  5
14C
100
AcDbEntity
  8
0
  6
ByLayer
 62
    7
370
   -1
100
AcDbLine
 10
13.92899643261422
 20
-4.263673888825149
 11
13.10649925057938
 21
-4.129525893121748
  0
LINE
  5
14D
100
AcDbEntity
  8
0
  6
ByLayer
 62
    7
370
   -1
100
AcDbLine
 10
13.10649925057938
 20
-4.129525893121748
 11
12.28686280836529
 21
-3.978718752710215
  0
LINE
  5
14E
100
AcDbEntity
  8
0
  6
ByLayer
 62
    7
370
   -1
100
AcDbLine
 10
12.28686280836529
 20
-3.978718752710215
 11
11.4703899215874
 21
-3.811131792890137
  0
LINE
  5
14F
100
AcDbEntity
  8
0
  6
ByLayer
 62
    7
370
   -1
100
AcDbLine
 10
11.4703899215874
 20
-3.811131792890137
 11
10.65738340586118
 21
-3.626644338961096
  0
LINE
  5
150
100
AcDbEntity
  8
0
  6
ByLayer
 62
    7
370
   -1
100
AcDbLine
 10
10.65738340586118
 20
-3.626644338961096
 11
9.848146076802067
 21
-3.425135716222687
  0
LINE
  5
151
100
AcDbEntity
  8
0
  6
ByLayer
 62
    7
370
   -1
100
AcDbLine
 10
9.848146076802067
 20
-3.425135716222687
 11
9.042980750025507
 21
-3.206485249974488
  0
LINE
  5
152
100
AcDbEntity
  8
0
  6
ByLayer
 62
    7
370
   -1
100
AcDbLine
 10
9.042980750025507
 20
-3.206485249974488
 11
8.675121699305492
 21
-3.094039692927058
  0
LINE
  5
153
100
AcDbEntity
  8
0
  6
ByLayer
 62
    7
370
   -1
100
AcDbLine
 10
8.675121699305492
 20
-3.094039692927058
 11
8.310168198583796
 21
-2.972112760296397
  0
LINE
  5
154
100
AcDbEntity
  8
0
  6
ByLayer
 62
    7
370
   -1
100
AcDbLine
 10
8.310168198583796
 20
-2.972112760296397
 11
7.948411208888928
 21
-2.840794543720921
  0
LINE
  5
155
100
AcDbEntity
  8
0
  6
ByLayer
 62
    7
370
   -1
100
AcDbLine
 10
7.948411208888928
 20
-2.840794543720921
 11
7.590141691249364
 21
-2.700175134839043
  0
LINE
  5
156
100
AcDbEntity
  8
0
  6
ByLayer
 62
    7
370
   -1
100
AcDbLine
 10
7.590141691249364
 20
-2.700175134839043
 11
7.235650606693632
 21
-2.550344625289181
  0
LINE
  5
157
100
AcDbEntity
  8
0
  6
ByLayer
 62
    7
370
   -1
100
AcDbLine
 10
7.235650606693632
 20
-2.550344625289181
 11
6.885228916250199
 21
-2.391393106709742
  0
LINE
  5
158
100
AcDbEntity
  8
0
  6
ByLayer
 62
    7
370
   -1
100
AcDbLine
 10
6.885228916250199
 20
-2.391393106709742
 11
6.539167580947606
 21
-2.223410670739149
  0
LINE
  5
159
100
AcDbEntity
  8
0
  6
ByLayer
 62
    7
370
   -1
100
AcDbLine
 10
6.539167580947606
 20
-2.223410670739149
 11
6.197757561814299
 21
-2.046487409015807
  0
LINE
  5
15A
100
AcDbEntity
  8
0
  6
ByLayer
 62
    7
370
   -1
100
AcDbLine
 10
6.197757561814299
 20
-2.046487409015807
 11
5.86128981987882
 21
-1.860713413178139
  0
LINE
  5
15B
100
AcDbEntity
  8
0
  6
ByLayer
 62
    7
370
   -1
100
AcDbLine
 10
5.86128981987882
 20
-1.860713413178139
 11
5.530055316169651
 21
-1.666178774864555
  0
LINE
  5
15C
100
AcDbEntity
  8
0
  6
ByLayer
 62
    7
370
   -1
100
AcDbLine
 10
5.530055316169651
 20
-1.666178774864555
 11
5.204345011715283
 21
-1.46297358571347
  0
LINE
  5
15D
100
AcDbEntity
  8
0
  6
ByLayer
 62
    7
370
   -1
100
AcDbLine
 10
5.204345011715283
 20
-1.46297358571347
 11
4.884449867544227
 21
-1.251187937363294
  0
LINE
  5
15E
100
AcDbEntity
  8
0
  6
ByLayer
 62
    7
370
   -1
100
AcDbLine
 10
4.884449867544227
 20
-1.251187937363294
 11
4.570660844684973
 21
-1.03091192145245
  0
LINE
  5
15F
100
AcDbEntity
  8
0
  6
ByLayer
 62
    7
370
   -1
100
AcDbLine
 10
4.570660844684973
 20
-1.03091192145245
 11
4.263268904166019
 21
-0.8022356296193465
  0
LINE
  5
160
100
AcDbEntity
  8
0
  6
ByLayer
 62
    7
370
   -1
100
AcDbLine
 10
4.263268904166019
 20
-0.8022356296193465
 11
3.962565007015883
 21
-0.5652491535023998
  0
LINE
  5
161
100
AcDbEntity
  8
0
  6
ByLayer
 62
    7
370
   -1
100
AcDbLine
 10
3.962565007015883
 20
-0.5652491535023998
 11
3.668840114263034
 21
-0.3200425847400226
  0
LINE
  5
162
100
AcDbEntity
  8
0
  6
ByLayer
 62
    7
370
   -1
100
AcDbLine
 10
3.668840114263034
 20
-0.3200425847400226
 11
3.382385186935984
 21
-0.06670601497063089
  0
LINE
  5
163
100
AcDbEntity
  8
0
  6
ByLayer
 62
    7
370
   -1
100
AcDbLine
 10
3.382385186935984
 20
-0.06670601497063089
 11
3.103491186063238
 21
0.1946704641673662
  0
LINE
  5
164
100
AcDbEntity
  8
0
  6
ByLayer
 62
    7
370
   -1
100
AcDbLine
 10
3.103491186063238
 20
0.1946704641673662
 11
2.832449072673292
 21
0.4639967610355491
  0
LINE
  5
165
100
AcDbEntity
  8
0
  6
ByLayer
 62
    7
370
   -1
100
AcDbLine
 10
2.832449072673292
 20
0.4639967610355491
 11
2.569549807794637
 21
0.7411827839955016
  0
LINE
  5
166
100
AcDbEntity
  8
0
  6
ByLayer
 62
    7
370
   -1
100
AcDbLine
 10
2.569549807794637
 20
0.7411827839955016
 11
2.315084352455777
 21
1.026138441408815
  0
LINE
  5
167
100
AcDbEntity
  8
0
  6
ByLayer
 62
    7
370
   -1
100
AcDbLine
 10
2.315084352455777
 20
1.026138441408815
 11
2.06934366768521
 21
1.318773641637069
  0
LINE
  5
168
100
AcDbEntity
  8
0
  6
ByLayer
 62
    7
370
   -1
100
AcDbLine
 10
2.06934366768521
 20
1.318773641637069
 11
1.832618714511426
 21
1.618998293041859
  0
LINE
  5
169
100
AcDbEntity
  8
0
  6
ByLayer
 62
    7
370
   -1
100
AcDbLine
 10
1.832618714511426
 20
1.618998293041859
 11
1.605200453962944
 21
1.926722303984757
  0
LINE
  5
16A
100
AcDbEntity
  8
0
  6
ByLayer
 62
    7
370
   -1
100
AcDbLine
 10
1.605200453962944
 20
1.926722303984757
 11
1.387379847068239
 21
2.241855582827359
  0
LINE
  5
16B
100
AcDbEntity
  8
0
  6
ByLayer
 62
    7
370
   -1
100
AcDbLine
 10
1.387379847068239
 20
2.241855582827359
 11
1.179447854855837
 21
2.564308037931252
  0
LINE
  5
16C
100
AcDbEntity
  8
0
  6
ByLayer
 62
    7
370
   -1
100
AcDbLine
 10
1.179447854855837
 20
2.564308037931252
 11
0.9816954383542011
 21
2.893989577658015
  0
LINE
  5
16D
100
AcDbEntity
  8
0
  6
ByLayer
 62
    7
370
   -1
100
AcDbLine
 10
0.9816954383542011
 20
2.893989577658015
 11
0.7944135585918559
 21
3.230810110369234
  0
LINE
  5
16E
100
AcDbEntity
  8
0
  6
ByLayer
 62
    7
370
   -1
100
AcDbLine
 10
0.7944135585918559
 20
3.230810110369234
 11
0.6178931765973061
 21
3.574679544426498
  0
LINE
  5
16F
100
AcDbEntity
  8
0
  6
ByLayer
 62
    7
370
   -1
100
AcDbLine
 10
0.6178931765973061
 20
3.574679544426498
 11
0.4524252533990136
 21
3.925507788191393
  0
LINE
  5
170
100
AcDbEntity
  8
0
  6
ByLayer
 62
    7
370
   -1
100
AcDbLine
 10
0.4524252533990136
 20
3.925507788191393
 11
0.2983007500255113
 21
4.283204750025515
  0
LINE
  5
171
100
AcDbEntity
  8
0
  6
ByLayer
 62
    7
370
   -1
100
AcDbLine
 10
0.2983007500255113
 20
4.283204750025515
 11
0.03760539706655663
 21
4.82767801644826
  0
LINE
  5
172
100
AcDbEntity
  8
0
  6
ByLayer
 62
    7
370
   -1
100
AcDbLine
 10
0.03760539706655663
 20
4.82767801644826
 11
-0.2110370372256796
 21
5.376620558826833
  0
LINE
  5
173
100
AcDbEntity
  8
0
  6
ByLayer
 62
    7
370
   -1
100
AcDbLine
 10
-0.2110370372256796
 20
5.376620558826833
 11
-0.4478136966194555
 21
5.929848749891246
  0
LINE
  5
174
100
AcDbEntity
  8
0
  6
ByLayer
 62
    7
370
   -1
100
AcDbLine
 10
-0.4478136966194555
 20
5.929848749891246
 11
-0.6729117248830292
 21
6.487178962371527
  0
LINE
  5
175
100
AcDbEntity
  8
0
  6
ByLayer
 62
    7
370
   -1
100
AcDbLine
 10
-0.6729117248830292
 20
6.487178962371527
 11
-0.8865182657846233
 21
7.048427568997687
  0
LINE
  5
176
100
AcDbEntity
  8
0
  6
ByLayer
 62
    7
370
   -1
100
AcDbLine
 10
-0.8865182657846233
 20
7.048427568997687
 11
-1.088820463092553
 21
7.613410942499753
  0
LINE
  5
177
100
AcDbEntity
  8
0
  6
ByLayer
 62
    7
370
   -1
100
AcDbLine
 10
-1.088820463092553
 20
7.613410942499753
 11
-1.280005460575012
 21
8.181945455607737
  0
LINE
  5
178
100
AcDbEntity
  8
0
  6
ByLayer
 62
    7
370
   -1
100
AcDbLine
 10
-1.280005460575012
 20
8.181945455607737
 11
-1.460260402000266
 21
8.753847481051663
  0
LINE
  5
179
100
AcDbEntity
  8
0
  6
ByLayer
 62
    7
370
   -1
100
AcDbLine
 10
-1.460260402000266
 20
8.753847481051663
 11
-1.629772431136587
 21
9.328933391561547
  0
LINE
  5
17A
100
AcDbEntity
  8
0
  6
ByLayer
 62
    7
370
   -1
100
AcDbLine
 10
-1.629772431136587
 20
9.328933391561547
 11
-1.788728691752198
 21
9.907019559867409
  0
LINE
  5
17B
100
AcDbEntity
  8
0
  6
ByLayer
 62
    7
370
   -1
100
AcDbLine
 10
-1.788728691752198
 20
9.907019559867409
 11
-1.937316327615385
 21
10.48792235869927
  0
LINE
  5
17C
100
AcDbEntity
  8
0
  6
ByLayer
 62
    7
370
   -1
100
AcDbLine
 10
-1.937316327615385
 20
10.48792235869927
 11
-2.075722482494378
 21
11.07145816078715
  0
LINE
  5
17D
100
AcDbEntity
  8
0
  6
ByLayer
 62
    7
370
   -1
100
AcDbLine
 10
-2.075722482494378
 20
11.07145816078715
 11
-2.204134300157435
 21
11.65744333886107
  0
LINE
  5
17E
100
AcDbEntity
  8
0
  6
ByLayer
 62
    7
370
   -1
100
AcDbLine
 10
-2.204134300157435
 20
11.65744333886107
 11
-2.322738924372807
 21
12.24569426565104
  0
LINE
  5
17F
100
AcDbEntity
  8
0
  6
ByLayer
 62
    7
370
   -1
100
AcDbLine
 10
-2.322738924372807
 20
12.24569426565104
 11
-2.431723498908738
 21
12.83602731388708
  0
LINE
  5
180
100
AcDbEntity
  8
0
  6
ByLayer
 62
    7
370
   -1
100
AcDbLine
 10
-2.431723498908738
 20
12.83602731388708
 11
-2.531275167533487
 21
13.42825885629921
  0
LINE
  5
181
100
AcDbEntity
  8
0
  6
ByLayer
 62
    7
370
   -1
100
AcDbLine
 10
-2.531275167533487
 20
13.42825885629921
 11
-2.62158107401531
 21
14.02220526561747
  0
LINE
  5
182
100
AcDbEntity
  8
0
  6
ByLayer
 62
    7
370
   -1
100
AcDbLine
 10
-2.62158107401531
 20
14.02220526561747
 11
-2.702828362122453
 21
14.61768291457185
  0
LINE
  5
183
100
AcDbEntity
  8
0
  6
ByLayer
 62
    7
370
   -1
100
AcDbLine
 10
-2.702828362122453
 20
14.61768291457185
 11
-2.775204175623173
 21
15.21450817589238
  0
LINE
  5
184
100
AcDbEntity
  8
0
  6
ByLayer
 62
    7
370
   -1
100
AcDbLine
 10
-2.775204175623173
 20
15.21450817589238
 11
-2.838895658285729
 21
15.81249742230908
  0
LINE
  5
185
100
AcDbEntity
  8
0
  6
ByLayer
 62
    7
370
   -1
100
AcDbLine
 10
-2.838895658285729
 20
15.81249742230908
 11
-2.894089953878357
 21
16.41146702655197
  0
LINE
  5
186
100
AcDbEntity
  8
0
  6
ByLayer
 62
    7
370
   -1
100
AcDbLine
 10
-2.894089953878357
 20
16.41146702655197
 11
-2.940974206169322
 21
17.01123336135107
  0
LINE
  5
187
100
AcDbEntity
  8
0
  6
ByLayer
 62
    7
370
   -1
100
AcDbLine
 10
-2.940974206169322
 20
17.01123336135107
 11
-2.979735558926862
 21
17.6116127994364
  0
LINE
  5
188
100
AcDbEntity
  8
0
  6
ByLayer
 62
    7
370
   -1
100
AcDbLine
 10
-2.979735558926862
 20
17.6116127994364
 11
-3.010561155919241
 21
18.21242171353798
  0
LINE
  5
189
100
AcDbEntity
  8
0
  6
ByLayer
 62
    7
370
   -1
100
AcDbLine
 10
-3.010561155919241
 20
18.21242171353798
 11
-3.033638140914711
 21
18.81347647638582
  0
LINE
  5
18A
100
AcDbEntity
  8
0
  6
ByLayer
 62
    7
370
   -1
100
AcDbLine
 10
-3.033638140914711
 20
18.81347647638582
 11
-3.049153657681508
 21
19.41459346070994
  0
LINE
  5
18B
100
AcDbEntity
  8
0
  6
ByLayer
 62
    7
370
   -1
100
AcDbLine
 10
-3.049153657681508
 20
19.41459346070994
 11
-3.057294849987919
 21
20.01558903924037
  0
LINE
  5
18C
100
AcDbEntity
  8
0
  6
ByLayer
 62
    7
370
   -1
100
AcDbLine
 10
-3.057294849987919
 20
20.01558903924037
 11
-3.058248861602159
 21
20.61627958470712
  0
LINE
  5
18D
100
AcDbEntity
  8
0
  6
ByLayer
 62
    7
370
   -1
100
AcDbLine
 10
-3.058248861602159
 20
20.61627958470712
 11
-3.052202836292501
 21
21.21648146984021
  0
LINE
  5
18E
100
AcDbEntity
  8
0
  6
ByLayer
 62
    7
370
   -1
100
AcDbLine
 10
-3.052202836292501
 20
21.21648146984021
 11
-3.039343917827196
 21
21.81601106736967
  0
LINE
  5
18F
100
AcDbEntity
  8
0
  6
ByLayer
 62
    7
370
   -1
100
AcDbLine
 10
-3.039343917827196
 20
21.81601106736967
 11
-3.019859249974488
 21
22.41468475002551
  0
LINE
  5
190
100
AcDbEntity
  8
0
  6
ByLayer
 62
    7
370
   -1
100
AcDbLine
 10
-3.019859249974488
 20
22.41468475002551
 11
-3.019859249974488
 21
22.41468475002551
  0
LINE
  5
191
100
AcDbEntity
  8
0
  6
ByLayer
 62
    7
370
   -1
100
AcDbLine
 10
0.1718350702354172
 20
34.53608002253829
 11
0.637877506306714
 21
34.72699922832192
  0
LINE
  5
192
100
AcDbEntity
  8
0
  6
ByLayer
 62
    7
370
   -1
100
AcDbLine
 10
0.637877506306714
 20
34.72699922832192
 11
1.106486403758965
 21
34.91062999034736
  0
LINE
  5
193
100
AcDbEntity
  8
0
  6
ByLayer
 62
    7
370
   -1
100
AcDbLine
 10
1.106486403758965
 20
34.91062999034736
 11
1.577559194836807
 21
35.08715891272324
  0
LINE
  5
194
100
AcDbEntity
  8
0
  6
ByLayer
 62
    7
370
   -1
100
AcDbLine
 10
1.577559194836807
 20
35.08715891272324
 11
2.050993311784879
 21
35.2567725995582
  0
LINE
  5
195
100
AcDbEntity
  8
0
  6
ByLayer
 62
    7
370
   -1
100
AcDbLine
 10
2.050993311784879
 20
35.2567725995582
 11
2.526686186847817
 21
35.41965765496083
  0
LINE
  5
196
100
AcDbEntity
  8
0
  6
ByLayer
 62
    7
370
   -1
100
AcDbLine
 10
2.526686186847817
 20
35.41965765496083
 11
3.004535252270261
 21
35.57600068303979
  0
LINE
  5
197
100
AcDbEntity
  8
0
  6
ByLayer
 62
    7
370
   -1
100
AcDbLine
 10
3.004535252270261
 20
35.57600068303979
 11
3.484437940296846
 21
35.72598828790367
  0
LINE
  5
198
100
AcDbEntity
  8
0
  6
ByLayer
 62
    7
370
   -1
100
AcDbLine
 10
3.484437940296846
 20
35.72598828790367
 11
3.966291683172211
 21
35.86980707366111
  0
LINE
  5
199
100
AcDbEntity
  8
0
  6
ByLayer
 62
    7
370
   -1
100
AcDbLine
 10
3.966291683172211
 20
35.86980707366111
 11
4.449993913140992
 21
36.00764364442073
  0
LINE
  5
19A
100
AcDbEntity
  8
0
  6
ByLayer
 62
    7
370
   -1
100
AcDbLine
 10
4.449993913140992
 20
36.00764364442073
 11
4.93544206244783
 21
36.13968460429116
  0
LINE
  5
19B
100
AcDbEntity
  8
0
  6
ByLayer
 62
    7
370
   -1
100
AcDbLine
 10
4.93544206244783
 20
36.13968460429116
 11
5.42253356333736
 21
36.26611655738103
  0
LINE
  5
19C
100
AcDbEntity
  8
0
  6
ByLayer
 62
    7
370
   -1
100
AcDbLine
 10
5.42253356333736
 20
36.26611655738103
 11
5.911165848054221
 21
36.38712610779893
  0
LINE
  5
19D
100
AcDbEntity
  8
0
  6
ByLayer
 62
    7
370
   -1
100
AcDbLine
 10
5.911165848054221
 20
36.38712610779893
 11
6.401236348843049
 21
36.50289985965352
  0
LINE
  5
19E
100
AcDbEntity
  8
0
  6
ByLayer
 62
    7
370
   -1
100
AcDbLine
 10
6.401236348843049
 20
36.50289985965352
 11
6.892642497948485
 21
36.61362441705342
  0
LINE
  5
19F
100
AcDbEntity
  8
0
  6
ByLayer
 62
    7
370
   -1
100
AcDbLine
 10
6.892642497948485
 20
36.61362441705342
 11
7.385281727615163
 21
36.71948638410722
  0
LINE
  5
1A0
100
AcDbEntity
  8
0
  6
ByLayer
 62
    7
370
   -1
100
AcDbLine
 10
7.385281727615163
 20
36.71948638410722
 11
7.879051470087719
 21
36.82067236492357
  0
LINE
  5
1A1
100
AcDbEntity
  8
0
  6
ByLayer
 62
    7
370
   -1
100
AcDbLine
 10
7.879051470087719
 20
36.82067236492357
 11
8.373849157610797
 21
36.9173689636111
  0
LINE
  5
1A2
100
AcDbEntity
  8
0
  6
ByLayer
 62
    7
370
   -1
100
AcDbLine
 10
8.373849157610797
 20
36.9173689636111
 11
8.869572222429031
 21
37.00976278427841
  0
LINE
  5
1A3
100
AcDbEntity
  8
0
  6
ByLayer
 62
    7
370
   -1
100
AcDbLine
 10
8.869572222429031
 20
37.00976278427841
 11
9.366118096787059
 21
37.09804043103414
  0
LINE
  5
1A4
100
AcDbEntity
  8
0
  6
ByLayer
 62
    7
370
   -1
100
AcDbLine
 10
9.366118096787059
 20
37.09804043103414
 11
9.863384212929516
 21
37.18238850798691
  0
LINE
  5
1A5
100
AcDbEntity
  8
0
  6
ByLayer
 62
    7
370
   -1
100
AcDbLine
 10
9.863384212929516
 20
37.18238850798691
 11
10.36126800310105
 21
37.26299361924535
  0
LINE
  5
1A6
100
AcDbEntity
  8
0
  6
ByLayer
 62
    7
370
   -1
100
AcDbLine
 10
10.36126800310105
 20
37.26299361924535
 11
10.85966689954628
 21
37.34004236891807
  0
LINE
  5
1A7
100
AcDbEntity
  8
0
  6
ByLayer
 62
    7
370
   -1
100
AcDbLine
 10
10.85966689954628
 20
37.34004236891807
 11
11.35847833450986
 21
37.4137213611137
  0
LINE
  5
1A8
100
AcDbEntity
  8
0
  6
ByLayer
 62
    7
370
   -1
100
AcDbLine
 10
11.35847833450986
 20
37.4137213611137
 11
11.85759974023642
 21
37.48421719994086
  0
LINE
  5
1A9
100
AcDbEntity
  8
0
  6
ByLayer
 62
    7
370
   -1
100
AcDbLine
 10
11.85759974023642
 20
37.48421719994086
 11
12.3569285489706
 21
37.55171648950818
  0
LINE
  5
1AA
100
AcDbEntity
  8
0
  6
ByLayer
 62
    7
370
   -1
100
AcDbLine
 10
12.3569285489706
 20
37.55171648950818
 11
12.85636219295704
 21
37.61640583392428
  0
LINE
  5
1AB
100
AcDbEntity
  8
0
  6
ByLayer
 62
    7
370
   -1
100
AcDbLine
 10
12.85636219295704
 20
37.61640583392428
 11
13.35579810444037
 21
37.67847183729778
  0
LINE
  5
1AC
100
AcDbEntity
  8
0
  6
ByLayer
 62
    7
370
   -1
100
AcDbLine
 10
13.35579810444037
 20
37.67847183729778
 11
13.85513371566524
 21
37.73810110373731
  0
LINE
  5
1AD
100
AcDbEntity
  8
0
  6
ByLayer
 62
    7
370
   -1
100
AcDbLine
 10
13.85513371566524
 20
37.73810110373731
 11
14.35426645887627
 21
37.79548023735148
  0
LINE
  5
1AE
100
AcDbEntity
  8
0
  6
ByLayer
 62
    7
370
   -1
100
AcDbLine
 10
14.35426645887627
 20
37.79548023735148
 11
14.85309376631812
 21
37.85079584224894
  0
LINE
  5
1AF
100
AcDbEntity
  8
0
  6
ByLayer
 62
    7
370
   -1
100
AcDbLine
 10
14.85309376631812
 20
37.85079584224894
 11
15.35151307023542
 21
37.90423452253829
  0
LINE
  5
1B0
100
AcDbEntity
  8
0
  6
ByLayer
 62
    7
370
   -1
100
AcDbLine
 10
15.35151307023542
 20
37.90423452253829
 11
16.30915806681156
 21
37.99075987826653
  0
LINE
  5
1B1
100
AcDbEntity
  8
0
  6
ByLayer
 62
    7
370
   -1
100
AcDbLine
 10
16.30915806681156
 20
37.99075987826653
 11
17.26855946324002
 21
38.06564248282831
  0
LINE
  5
1B2
100
AcDbEntity
  8
0
  6
ByLayer
 62
    7
370
   -1
100
AcDbLine
 10
17.26855946324002
 20
38.06564248282831
 11
18.22947186957079
 21
38.12870464228923
  0
LINE
  5
1B3
100
AcDbEntity
  8
0
  6
ByLayer
 62
    7
370
   -1
100
AcDbLine
 10
18.22947186957079
 20
38.12870464228923
 11
19.1916498958539
 21
38.17976866271485
  0
LINE
  5
1B4
100
AcDbEntity
  8
0
  6
ByLayer
 62
    7
370
   -1
100
AcDbLine
 10
19.1916498958539
 20
38.17976866271485
 11
20.15484815213935
 21
38.2186568501708
  0
LINE
  5
1B5
100
AcDbEntity
  8
0
  6
ByLayer
 62
    7
370
   -1
100
AcDbLine
 10
20.15484815213935
 20
38.2186568501708
 11
21.11882124847717
 21
38.24519151072264
  0
LINE
  5
1B6
100
AcDbEntity
  8
0
  6
ByLayer
 62
    7
370
   -1
100
AcDbLine
 10
21.11882124847717
 20
38.24519151072264
 11
22.08332379491737
 21
38.25919495043597
  0
LINE
  5
1B7
100
AcDbEntity
  8
0
  6
ByLayer
 62
    7
370
   -1
100
AcDbLine
 10
22.08332379491737
 20
38.25919495043597
 11
23.04811040150997
 21
38.2604894753764
  0
LINE
  5
1B8
100
AcDbEntity
  8
0
  6
ByLayer
 62
    7
370
   -1
100
AcDbLine
 10
23.04811040150997
 20
38.2604894753764
 11
24.01293567830496
 21
38.24889739160947
  0
LINE
  5
1B9
100
AcDbEntity
  8
0
  6
ByLayer
 62
    7
370
   -1
100
AcDbLine
 10
24.01293567830496
 20
38.24889739160947
 11
24.9775542353524
 21
38.22424100520083
  0
LINE
  5
1BA
100
AcDbEntity
  8
0
  6
ByLayer
 62
    7
370
   -1
100
AcDbLine
 10
24.9775542353524
 20
38.22424100520083
 11
25.94172068270227
 21
38.18634262221604
  0
LINE
  5
1BB
100
AcDbEntity
  8
0
  6
ByLayer
 62
    7
370
   -1
100
AcDbLine
 10
25.94172068270227
 20
38.18634262221604
 11
26.90518963040459
 21
38.13502454872069
  0
LINE
  5
1BC
100
AcDbEntity
  8
0
  6
ByLayer
 62
    7
370
   -1
100
AcDbLine
 10
26.90518963040459
 20
38.13502454872069
 11
27.86771568850939
 21
38.07010909078037
  0
LINE
  5
1BD
100
AcDbEntity
  8
0
  6
ByLayer
 62
    7
370
   -1
100
AcDbLine
 10
27.86771568850939
 20
38.07010909078037
 11
28.82905346706667
 21
37.99141855446069
  0
LINE
  5
1BE
100
AcDbEntity
  8
0
  6
ByLayer
 62
    7
370
   -1
100
AcDbLine
 10
28.82905346706667
 20
37.99141855446069
 11
29.78895757612645
 21
37.8987752458272
  0
LINE
  5
1BF
100
AcDbEntity
  8
0
  6
ByLayer
 62
    7
370
   -1
100
AcDbLine
 10
29.78895757612645
 20
37.8987752458272
 11
30.74718262573875
 21
37.79200147094552
  0
LINE
  5
1C0
100
AcDbEntity
  8
0
  6
ByLayer
 62
    7
370
   -1
100
AcDbLine
 10
30.74718262573875
 20
37.79200147094552
 11
31.70348322595358
 21
37.67091953588125
  0
LINE
  5
1C1
100
AcDbEntity
  8
0
  6
ByLayer
 62
    7
370
   -1
100
AcDbLine
 10
31.70348322595358
 20
37.67091953588125
 11
32.65761398682096
 21
37.53535174669994
  0
LINE
  5
1C2
100
AcDbEntity
  8
0
  6
ByLayer
 62
    7
370
   -1
100
AcDbLine
 10
32.65761398682096
 20
37.53535174669994
 11
33.60932951839089
 21
37.38512040946723
  0
LINE
  5
1C3
100
AcDbEntity
  8
0
  6
ByLayer
 62
    7
370
   -1
100
AcDbLine
 10
33.60932951839089
 20
37.38512040946723
 11
34.5583844307134
 21
37.22004783024867
  0
LINE
  5
1C4
100
AcDbEntity
  8
0
  6
ByLayer
 62
    7
370
   -1
100
AcDbLine
 10
34.5583844307134
 20
37.22004783024867
 11
35.50453333383851
 21
37.03995631510988
  0
LINE
  5
1C5
100
AcDbEntity
  8
0
  6
ByLayer
 62
    7
370
   -1
100
AcDbLine
 10
35.50453333383851
 20
37.03995631510988
 11
36.44753083781622
 21
36.84466817011642
  0
LINE
  5
1C6
100
AcDbEntity
  8
0
  6
ByLayer
 62
    7
370
   -1
100
AcDbLine
 10
36.44753083781622
 20
36.84466817011642
 11
37.38713155269655
 21
36.6340057013339
  0
LINE
  5
1C7
100
AcDbEntity
  8
0
  6
ByLayer
 62
    7
370
   -1
100
AcDbLine
 10
37.38713155269655
 20
36.6340057013339
 11
38.32309008852952
 21
36.40779121482791
  0
LINE
  5
1C8
100
AcDbEntity
  8
0
  6
ByLayer
 62
    7
370
   -1
100
AcDbLine
 10
38.32309008852952
 20
36.40779121482791
 11
39.25516105536514
 21
36.16584701666403
  0
LINE
  5
1C9
100
AcDbEntity
  8
0
  6
ByLayer
 62
    7
370
   -1
100
AcDbLine
 10
39.25516105536514
 20
36.16584701666403
 11
40.18309906325342
 21
35.90799541290787
  0
LINE
  5
1CA
100
AcDbEntity
  8
0
  6
ByLayer
 62
    7
370
   -1
100
AcDbLine
 10
40.18309906325342
 20
35.90799541290787
 11
41.1066587222444
 21
35.63405870962499
  0
LINE
  5
1CB
100
AcDbEntity
  8
0
  6
ByLayer
 62
    7
370
   -1
100
AcDbLine
 10
41.1066587222444
 20
35.63405870962499
 11
42.02559464238807
 21
35.34385921288101
  0
LINE
  5
1CC
100
AcDbEntity
  8
0
  6
ByLayer
 62
    7
370
   -1
100
AcDbLine
 10
42.02559464238807
 20
35.34385921288101
 11
42.93966143373444
 21
35.03721922874151
  0
LINE
  5
1CD
100
AcDbEntity
  8
0
  6
ByLayer
 62
    7
370
   -1
100
AcDbLine
 10
42.93966143373444
 20
35.03721922874151
 11
43.84861370633354
 21
34.71396106327207
  0
LINE
  5
1CE
100
AcDbEntity
  8
0
  6
ByLayer
 62
    7
370
   -1
100
AcDbLine
 10
43.84861370633354
 20
34.71396106327207
 11
44.75220607023542
 21
34.37390702253829
  0
LINE
  5
1CF
100
AcDbEntity
  8
0
  6
ByLayer
 62
    7
370
   -1
100
AcDbLine
 10
48.89937057023541
 20
6.807556022538293
 11
48.6609699856461
 21
6.281187650714588
  0
LINE
  5
1D0
100
AcDbEntity
  8
0
  6
ByLayer
 62
    7
370
   -1
100
AcDbLine
 10
48.6609699856461
 20
6.281187650714588
 11
48.41094274471764
 21
5.757568765950734
  0
LINE
  5
1D1
100
AcDbEntity
  8
0
  6
ByLayer
 62
    7
370
   -1
100
AcDbLine
 10
48.41094274471764
 20
5.757568765950734
 11
48.14931371348338
 21
5.237370311081814
  0
LINE
  5
1D2
100
AcDbEntity
  8
0
  6
ByLayer
 62
    7
370
   -1
100
AcDbLine
 10
48.14931371348338
 20
5.237370311081814
 11
47.87610775797667
 21
4.721263228942912
  0
LINE
  5
1D3
100
AcDbEntity
  8
0
  6
ByLayer
 62
    7
370
   -1
100
AcDbLine
 10
47.87610775797667
 20
4.721263228942912
 11
47.59134974423091
 21
4.209918462369115
  0
LINE
  5
1D4
100
AcDbEntity
  8
0
  6
ByLayer
 62
    7
370
   -1
100
AcDbLine
 10
47.59134974423091
 20
4.209918462369115
 11
47.29506453827945
 21
3.704006954195505
  0
LINE
  5
1D5
100
AcDbEntity
  8
0
  6
ByLayer
 62
    7
370
   -1
100
AcDbLine
 10
47.29506453827945
 20
3.704006954195505
 11
46.98727700615565
 21
3.204199647257169
  0
LINE
  5
1D6
100
AcDbEntity
  8
0
  6
ByLayer
 62
    7
370
   -1
100
AcDbLine
 10
46.98727700615565
 20
3.204199647257169
 11
46.6680120138929
 21
2.711167484389189
  0
LINE
  5
1D7
100
AcDbEntity
  8
0
  6
ByLayer
 62
    7
370
   -1
100
AcDbLine
 10
46.6680120138929
 20
2.711167484389189
 11
46.33729442752452
 21
2.225581408426649
  0
LINE
  5
1D8
100
AcDbEntity
  8
0
  6
ByLayer
 62
    7
370
   -1
100
AcDbLine
 10
46.33729442752452
 20
2.225581408426649
 11
45.99514911308392
 21
1.748112362204637
  0
LINE
  5
1D9
100
AcDbEntity
  8
0
  6
ByLayer
 62
    7
370
   -1
100
AcDbLine
 10
45.99514911308392
 20
1.748112362204637
 11
45.64160093660445
 21
1.279431288558234
  0
LINE
  5
1DA
100
AcDbEntity
  8
0
  6
ByLayer
 62
    7
370
   -1
100
AcDbLine
 10
45.64160093660445
 20
1.279431288558234
 11
45.27667476411948
 21
0.820209130322526
  0
LINE
  5
1DB
100
AcDbEntity
  8
0
  6
ByLayer
 62
    7
370
   -1
100
AcDbLine
 10
45.27667476411948
 20
0.820209130322526
 11
44.90039546166236
 21
0.3711168303325965
  0
LINE
  5
1DC
100
AcDbEntity
  8
0
  6
ByLayer
 62
    7
370
   -1
100
AcDbLine
 10
44.90039546166236
 20
0.3711168303325965
 11
44.51278789526646
 21
-0.0671746685764697
  0
LINE
  5
1DD
100
AcDbEntity
  8
0
  6
ByLayer
 62
    7
370
   -1
100
AcDbLine
 10
44.51278789526646
 20
-0.0671746685764697
 11
44.11387693096517
 21
-0.4939944235695882
  0
LINE
  5
1DE
100
AcDbEntity
  8
0
  6
ByLayer
 62
    7
370
   -1
100
AcDbLine
 10
44.11387693096517
 20
-0.4939944235695882
 11
43.70368743479182
 21
-0.9086714918116742
  0
LINE
  5
1DF
100
AcDbEntity
  8
0
  6
ByLayer
 62
    7
370
   -1
100
AcDbLine
 10
43.70368743479182
 20
-0.9086714918116742
 11
43.28224427277981
 21
-1.310534930467644
  0
LINE
  5
1E0
100
AcDbEntity
  8
0
  6
ByLayer
 62
    7
370
   -1
100
AcDbLine
 10
43.28224427277981
 20
-1.310534930467644
 11
42.84957231096249
 21
-1.698913796702413
  0
LINE
  5
1E1
100
AcDbEntity
  8
0
  6
ByLayer
 62
    7
370
   -1
100
AcDbLine
 10
42.84957231096249
 20
-1.698913796702413
 11
42.40569641537321
 21
-2.073137147680896
  0
LINE
  5
1E2
100
AcDbEntity
  8
0
  6
ByLayer
 62
    7
370
   -1
100
AcDbLine
 10
42.40569641537321
 20
-2.073137147680896
 11
41.95064145204536
 21
-2.432534040568009
  0
LINE
  5
1E3
100
AcDbEntity
  8
0
  6
ByLayer
 62
    7
370
   -1
100
AcDbLine
 10
41.95064145204536
 20
-2.432534040568009
 11
41.4844322870123
 21
-2.776433532528668
  0
LINE
  5
1E4
100
AcDbEntity
  8
0
  6
ByLayer
 62
    7
370
   -1
100
AcDbLine
 10
41.4844322870123
 20
-2.776433532528668
 11
41.00709378630739
 21
-3.104164680727789
  0
LINE
  5
1E5
100
AcDbEntity
  8
0
  6
ByLayer
 62
    7
370
   -1
100
AcDbLine
 10
41.00709378630739
 20
-3.104164680727789
 11
40.51865081596399
 21
-3.415056542330286
  0
LINE
  5
1E6
100
AcDbEntity
  8
0
  6
ByLayer
 62
    7
370
   -1
100
AcDbLine
 10
40.51865081596399
 20
-3.415056542330286
 11
40.01912824201549
 21
-3.708438174501075
  0
LINE
  5
1E7
100
AcDbEntity
  8
0
  6
ByLayer
 62
    7
370
   -1
100
AcDbLine
 10
40.01912824201549
 20
-3.708438174501075
 11
39.50855093049523
 21
-3.983638634405073
  0
LINE
  5
1E8
100
AcDbEntity
  8
0
  6
ByLayer
 62
    7
370
   -1
100
AcDbLine
 10
39.50855093049523
 20
-3.983638634405073
 11
38.9869437474366
 21
-4.239986979207194
  0
LINE
  5
1E9
100
AcDbEntity
  8
0
  6
ByLayer
 62
    7
370
   -1
100
AcDbLine
 10
38.9869437474366
 20
-4.239986979207194
 11
38.45433155887294
 21
-4.476812266072356
  0
LINE
  5
1EA
100
AcDbEntity
  8
0
  6
ByLayer
 62
    7
370
   -1
100
AcDbLine
 10
38.45433155887294
 20
-4.476812266072356
 11
37.91073923083762
 21
-4.693443552165471
  0
LINE
  5
1EB
100
AcDbEntity
  8
0
  6
ByLayer
 62
    7
370
   -1
100
AcDbLine
 10
37.91073923083762
 20
-4.693443552165471
 11
37.35619162936403
 21
-4.889209894651456
  0
LINE
  5
1EC
100
AcDbEntity
  8
0
  6
ByLayer
 62
    7
370
   -1
100
AcDbLine
 10
37.35619162936403
 20
-4.889209894651456
 11
36.7907136204855
 21
-5.063440350695228
  0
LINE
  5
1ED
100
AcDbEntity
  8
0
  6
ByLayer
 62
    7
370
   -1
100
AcDbLine
 10
36.7907136204855
 20
-5.063440350695228
 11
36.21433007023542
 21
-5.215463977461704
  0
LINE
  5
1EE
100
AcDbEntity
  8
0
  6
ByLayer
 62
    7
370
   -1
100
AcDbLine
 10
36.21433007023542
 20
-5.215463977461704
 11
35.29938937732481
 21
-5.495042023482315
  0
LINE
  5
1EF
100
AcDbEntity
  8
0
  6
ByLayer
 62
    7
370
   -1
100
AcDbLine
 10
35.29938937732481
 20
-5.495042023482315
 11
34.37903258626376
 21
-5.758931450725442
  0
LINE
  5
1F0
100
AcDbEntity
  8
0
  6
ByLayer
 62
    7
370
   -1
100
AcDbLine
 10
34.37903258626376
 20
-5.758931450725442
 11
33.45360793501002
 21
-6.006993483285611
  0
LINE
  5
1F1
100
AcDbEntity
  8
0
  6
ByLayer
 62
    7
370
   -1
100
AcDbLine
 10
33.45360793501002
 20
-6.006993483285611
 11
32.52346366152138
 21
-6.239089345257348
  0
LINE
  5
1F2
100
AcDbEntity
  8
0
  6
ByLayer
 62
    7
370
   -1
100
AcDbLine
 10
32.52346366152138
 20
-6.239089345257348
 11
31.58894800375561
 21
-6.455080260735176
  0
LINE
  5
1F3
100
AcDbEntity
  8
0
  6
ByLayer
 62
    7
370
   -1
100
AcDbLine
 10
31.58894800375561
 20
-6.455080260735176
 11
30.65040919967048
 21
-6.654827453813624
  0
LINE
  5
1F4
100
AcDbEntity
  8
0
  6
ByLayer
 62
    7
370
   -1
100
AcDbLine
 10
30.65040919967048
 20
-6.654827453813624
 11
29.70819548722377
 21
-6.838192148587212
  0
LINE
  5
1F5
100
AcDbEntity
  8
0
  6
ByLayer
 62
    7
370
   -1
100
AcDbLine
 10
29.70819548722377
 20
-6.838192148587212
 11
28.76265510437325
 21
-7.005035569150471
  0
LINE
  5
1F6
100
AcDbEntity
  8
0
  6
ByLayer
 62
    7
370
   -1
100
AcDbLine
 10
28.76265510437325
 20
-7.005035569150471
 11
27.81413628907668
 21
-7.15521893959792
  0
LINE
  5
1F7
100
AcDbEntity
  8
0
  6
ByLayer
 62
    7
370
   -1
100
AcDbLine
 10
27.81413628907668
 20
-7.15521893959792
 11
26.86298727929184
 21
-7.288603484024088
  0
LINE
  5
1F8
100
AcDbEntity
  8
0
  6
ByLayer
 62
    7
370
   -1
100
AcDbLine
 10
26.86298727929184
 20
-7.288603484024088
 11
25.90955631297652
 21
-7.405050426523502
  0
LINE
  5
1F9
100
AcDbEntity
  8
0
  6
ByLayer
 62
    7
370
   -1
100
AcDbLine
 10
25.90955631297652
 20
-7.405050426523502
 11
24.95419162808847
 21
-7.504420991190684
  0
LINE
  5
1FA
100
AcDbEntity
  8
0
  6
ByLayer
 62
    7
370
   -1
100
AcDbLine
 10
24.95419162808847
 20
-7.504420991190684
 11
23.99724146258546
 21
-7.586576402120159
  0
LINE
  5
1FB
100
AcDbEntity
  8
0
  6
ByLayer
 62
    7
370
   -1
100
AcDbLine
 10
23.99724146258546
 20
-7.586576402120159
 11
23.03905405442528
 21
-7.651377883406453
  0
LINE
  5
1FC
100
AcDbEntity
  8
0
  6
ByLayer
 62
    7
370
   -1
100
AcDbLine
 10
23.03905405442528
 20
-7.651377883406453
 11
22.07997764156569
 21
-7.698686659144093
  0
LINE
  5
1FD
100
AcDbEntity
  8
0
  6
ByLayer
 62
    7
370
   -1
100
AcDbLine
 10
22.07997764156569
 20
-7.698686659144093
 11
21.12036046196447
 21
-7.728363953427602
  0
LINE
  5
1FE
100
AcDbEntity
  8
0
  6
ByLayer
 62
    7
370
   -1
100
AcDbLine
 10
21.12036046196447
 20
-7.728363953427602
 11
20.16055075357939
 21
-7.740270990351505
  0
LINE
  5
1FF
100
AcDbEntity
  8
0
  6
ByLayer
 62
    7
370
   -1
100
AcDbLine
 10
20.16055075357939
 20
-7.740270990351505
 11
19.20089675436822
 21
-7.734268994010328
  0
LINE
  5
200
100
AcDbEntity
  8
0
  6
ByLayer
 62
    7
370
   -1
100
AcDbLine
 10
19.20089675436822
 20
-7.734268994010328
 11
18.24174670228873
 21
-7.710219188498597
  0
LINE
  5
201
100
AcDbEntity
  8
0
  6
ByLayer
 62
    7
370
   -1
100
AcDbLine
 10
18.24174670228873
 20
-7.710219188498597
 11
17.2834488352987
 21
-7.667982797910835
  0
LINE
  5
202
100
AcDbEntity
  8
0
  6
ByLayer
 62
    7
370
   -1
100
AcDbLine
 10
17.2834488352987
 20
-7.667982797910835
 11
16.3263513913559
 21
-7.60742104634157
  0
LINE
  5
203
100
AcDbEntity
  8
0
  6
ByLayer
 62
    7
370
   -1
100
AcDbLine
 10
16.3263513913559
 20
-7.60742104634157
 11
15.3708026084181
 21
-7.528395157885326
  0
LINE
  5
204
100
AcDbEntity
  8
0
  6
ByLayer
 62
    7
370
   -1
100
AcDbLine
 10
15.3708026084181
 20
-7.528395157885326
 11
14.41715072444308
 21
-7.430766356636626
  0
LINE
  5
205
100
AcDbEntity
  8
0
  6
ByLayer
 62
    7
370
   -1
100
AcDbLine
 10
14.41715072444308
 20
-7.430766356636626
 11
13.4657439773886
 21
-7.314395866689998
  0
LINE
  5
206
100
AcDbEntity
  8
0
  6
ByLayer
 62
    7
370
   -1
100
AcDbLine
 10
13.4657439773886
 20
-7.314395866689998
 11
12.51693060521244
 21
-7.179144912139966
  0
LINE
  5
207
100
AcDbEntity
  8
0
  6
ByLayer
 62
    7
370
   -1
100
AcDbLine
 10
12.51693060521244
 20
-7.179144912139966
 11
11.57105884587237
 21
-7.024874717081056
  0
LINE
  5
208
100
AcDbEntity
  8
0
  6
ByLayer
 62
    7
370
   -1
100
AcDbLine
 10
11.57105884587237
 20
-7.024874717081056
 11
10.62847693732617
 21
-6.851446505607793
  0
LINE
  5
209
100
AcDbEntity
  8
0
  6
ByLayer
 62
    7
370
   -1
100
AcDbLine
 10
10.62847693732617
 20
-6.851446505607793
 11
9.689533117531596
 21
-6.658721501814702
  0
LINE
  5
20A
100
AcDbEntity
  8
0
  6
ByLayer
 62
    7
370
   -1
100
AcDbLine
 10
9.689533117531596
 20
-6.658721501814702
 11
8.754575624446437
 21
-6.446560929796307
  0
LINE
  5
20B
100
AcDbEntity
  8
0
  6
ByLayer
 62
    7
370
   -1
100
AcDbLine
 10
8.754575624446437
 20
-6.446560929796307
 11
7.823952696028459
 21
-6.214826013647135
  0
LINE
  5
20C
100
AcDbEntity
  8
0
  6
ByLayer
 62
    7
370
   -1
100
AcDbLine
 10
7.823952696028459
 20
-6.214826013647135
 11
6.898012570235416
 21
-5.963377977461706
  0
LINE
  5
20D
100
AcDbEntity
  8
0
  6
ByLayer
 62
    7
370
   -1
100
AcDbLine
 10
6.898012570235416
 20
-5.963377977461706
 11
6.474974661907399
 21
-5.834065586857162
  0
LINE
  5
20E
100
AcDbEntity
  8
0
  6
ByLayer
 62
    7
370
   -1
100
AcDbLine
 10
6.474974661907399
 20
-5.834065586857162
 11
6.055278136077451
 21
-5.693849614331901
  0
LINE
  5
20F
100
AcDbEntity
  8
0
  6
ByLayer
 62
    7
370
   -1
100
AcDbLine
 10
6.055278136077451
 20
-5.693849614331901
 11
5.639257597928345
 21
-5.542833665270105
  0
LINE
  5
210
100
AcDbEntity
  8
0
  6
ByLayer
 62
    7
370
   -1
100
AcDbLine
 10
5.639257597928345
 20
-5.542833665270105
 11
5.227247652642856
 21
-5.381121345055946
  0
LINE
  5
211
100
AcDbEntity
  8
0
  6
ByLayer
 62
    7
370
   -1
100
AcDbLine
 10
5.227247652642856
 20
-5.381121345055946
 11
4.819582905403757
 21
-5.208816259073601
  0
LINE
  5
212
100
AcDbEntity
  8
0
  6
ByLayer
 62
    7
370
   -1
100
AcDbLine
 10
4.819582905403757
 20
-5.208816259073601
 11
4.416597961393823
 21
-5.026022012707251
  0
LINE
  5
213
100
AcDbEntity
  8
0
  6
ByLayer
 62
    7
370
   -1
100
AcDbLine
 10
4.416597961393823
 20
-5.026022012707251
 11
4.018627425795823
 21
-4.832842211341065
  0
LINE
  5
214
100
AcDbEntity
  8
0
  6
ByLayer
 62
    7
370
   -1
100
AcDbLine
 10
4.018627425795823
 20
-4.832842211341065
 11
3.626005903792533
 21
-4.629380460359225
  0
LINE
  5
215
100
AcDbEntity
  8
0
  6
ByLayer
 62
    7
370
   -1
100
AcDbLine
 10
3.626005903792533
 20
-4.629380460359225
 11
3.239068000566727
 21
-4.415740365145905
  0
LINE
  5
216
100
AcDbEntity
  8
0
  6
ByLayer
 62
    7
370
   -1
100
AcDbLine
 10
3.239068000566727
 20
-4.415740365145905
 11
2.858148321301178
 21
-4.192025531085283
  0
LINE
  5
217
100
AcDbEntity
  8
0
  6
ByLayer
 62
    7
370
   -1
100
AcDbLine
 10
2.858148321301178
 20
-4.192025531085283
 11
2.483581471178658
 21
-3.958339563561535
  0
LINE
  5
218
100
AcDbEntity
  8
0
  6
ByLayer
 62
    7
370
   -1
100
AcDbLine
 10
2.483581471178658
 20
-3.958339563561535
 11
2.115702055381941
 21
-3.714786067958836
  0
LINE
  5
219
100
AcDbEntity
  8
0
  6
ByLayer
 62
    7
370
   -1
100
AcDbLine
 10
2.115702055381941
 20
-3.714786067958836
 11
1.754844679093801
 21
-3.461468649661363
  0
LINE
  5
21A
100
AcDbEntity
  8
0
  6
ByLayer
 62
    7
370
   -1
100
AcDbLine
 10
1.754844679093801
 20
-3.461468649661363
 11
1.401343947497011
 21
-3.198490914053294
  0
LINE
  5
21B
100
AcDbEntity
  8
0
  6
ByLayer
 62
    7
370
   -1
100
AcDbLine
 10
1.401343947497011
 20
-3.198490914053294
 11
1.055534465774343
 21
-2.925956466518804
  0
LINE
  5
21C
100
AcDbEntity
  8
0
  6
ByLayer
 62
    7
370
   -1
100
AcDbLine
 10
1.055534465774343
 20
-2.925956466518804
 11
0.7177508391085722
 21
-2.64396891244207
  0
LINE
  5
21D
100
AcDbEntity
  8
0
  6
ByLayer
 62
    7
370
   -1
100
AcDbLine
 10
0.7177508391085722
 20
-2.64396891244207
 11
0.3883276726824706
 21
-2.352631857207268
  0
LINE
  5
21E
100
AcDbEntity
  8
0
  6
ByLayer
 62
    7
370
   -1
100
AcDbLine
 10
0.3883276726824706
 20
-2.352631857207268
 11
0.06759957167881214
 21
-2.052048906198574
  0
LINE
  5
21F
100
AcDbEntity
  8
0
  6
ByLayer
 62
    7
370
   -1
100
AcDbLine
 10
0.06759957167881214
 20
-2.052048906198574
 11
-0.24409885871963
 21
-1.742323664800165
  0
LINE
  5
220
100
AcDbEntity
  8
0
  6
ByLayer
 62
    7
370
   -1
100
AcDbLine
 10
-0.24409885871963
 20
-1.742323664800165
 11
-0.5464330133300824
 21
-1.423559738396218
  0
LINE
  5
221
100
AcDbEntity
  8
0
  6
ByLayer
 62
    7
370
   -1
100
AcDbLine
 10
-0.5464330133300824
 20
-1.423559738396218
 11
-0.8390682869697719
 21
-1.095860732370908
  0
LINE
  5
222
100
AcDbEntity
  8
0
  6
ByLayer
 62
    7
370
   -1
100
AcDbLine
 10
-0.8390682869697719
 20
-1.095860732370908
 11
-1.121670074455925
 21
-0.7593302521084134
  0
LINE
  5
223
100
AcDbEntity
  8
0
  6
ByLayer
 62
    7
370
   -1
100
AcDbLine
 10
-1.121670074455925
 20
-0.7593302521084134
 11
-1.393903770605769
 21
-0.414071902992909
  0
LINE
  5
224
100
AcDbEntity
  8
0
  6
ByLayer
 62
    7
370
   -1
100
AcDbLine
 10
-1.393903770605769
 20
-0.414071902992909
 11
-1.65543477023653
 21
-0.06018929040857146
  0
LINE
  5
225
100
AcDbEntity
  8
0
  6
ByLayer
 62
    7
370
   -1
100
AcDbLine
 10
-1.65543477023653
 20
-0.06018929040857146
 11
-1.905928468165434
 21
0.3022139802604222
  0
LINE
  5
226
100
AcDbEntity
  8
0
  6
ByLayer
 62
    7
370
   -1
100
AcDbLine
 10
-1.905928468165434
 20
0.3022139802604222
 11
-2.145050259209708
 21
0.6730343036298956
  0
LINE
  5
227
100
AcDbEntity
  8
0
  6
ByLayer
 62
    7
370
   -1
100
AcDbLine
 10
-2.145050259209708
 20
0.6730343036298956
 11
-2.372465538186581
 21
1.052168074315673
  0
LINE
  5
228
100
AcDbEntity
  8
0
  6
ByLayer
 62
    7
370
   -1
100
AcDbLine
 10
-2.372465538186581
 20
1.052168074315673
 11
-2.587839699913276
 21
1.439511686933577
  0
LINE
  5
229
100
AcDbEntity
  8
0
  6
ByLayer
 62
    7
370
   -1
100
AcDbLine
 10
-2.587839699913276
 20
1.439511686933577
 11
-2.790838139207022
 21
1.834961536099432
  0
LINE
  5
22A
100
AcDbEntity
  8
0
  6
ByLayer
 62
    7
370
   -1
100
AcDbLine
 10
-2.790838139207022
 20
1.834961536099432
 11
-2.981126250885046
 21
2.238414016429062
  0
LINE
  5
22B
100
AcDbEntity
  8
0
  6
ByLayer
 62
    7
370
   -1
100
AcDbLine
 10
-2.981126250885046
 20
2.238414016429062
 11
-3.158369429764576
 21
2.649765522538297
  0
LINE
  5
22C
100
AcDbEntity
  8
0
  6
ByLayer
 62
    7
370
   -1
100
AcDbLine
 10
120.9440407500255
 20
22.41468475002551
 11
120.9343735992082
 21
22.80552872807258
  0
LINE
  5
22D
100
AcDbEntity
  8
0
  6
ByLayer
 62
    7
370
   -1
100
AcDbLine
 10
120.9343735992082
 20
22.80552872807258
 11
120.910470328086
 21
23.19599062226881
  0
LINE
  5
22E
100
AcDbEntity
  8
0
  6
ByLayer
 62
    7
370
   -1
100
AcDbLine
 10
120.910470328086
 20
23.19599062226881
 11
120.8724878860733
 21
23.58554924366453
  0
LINE
  5
22F
100
AcDbEntity
  8
0
  6
ByLayer
 62
    7
370
   -1
100
AcDbLine
 10
120.8724878860733
 20
23.58554924366453
 11
120.8205832225843
 21
23.97368340331006
  0
LINE
  5
230
100
AcDbEntity
  8
0
  6
ByLayer
 62
    7
370
   -1
100
AcDbLine
 10
120.8205832225843
 20
23.97368340331006
 11
120.7549132870333
 21
24.35987191225572
  0
LINE
  5
231
100
AcDbEntity
  8
0
  6
ByLayer
 62
    7
370
   -1
100
AcDbLine
 10
120.7549132870333
 20
24.35987191225572
 11
120.6756350288346
 21
24.74359358155181
  0
LINE
  5
232
100
AcDbEntity
  8
0
  6
ByLayer
 62
    7
370
   -1
100
AcDbLine
 10
120.6756350288346
 20
24.74359358155181
 11
120.5829053974022
 21
25.12432722224867
  0
LINE
  5
233
100
AcDbEntity
  8
0
  6
ByLayer
 62
    7
370
   -1
100
AcDbLine
 10
120.5829053974022
 20
25.12432722224867
 11
120.4768813421507
 21
25.5015516453966
  0
LINE
  5
234
100
AcDbEntity
  8
0
  6
ByLayer
 62
    7
370
   -1
100
AcDbLine
 10
120.4768813421507
 20
25.5015516453966
 11
120.357719812494
 21
25.87474566204592
  0
LINE
  5
235
100
AcDbEntity
  8
0
  6
ByLayer
 62
    7
370
   -1
100
AcDbLine
 10
120.357719812494
 20
25.87474566204592
 11
120.2255777578467
 21
26.24338808324695
  0
LINE
  5
236
100
AcDbEntity
  8
0
  6
ByLayer
 62
    7
370
   -1
100
AcDbLine
 10
120.2255777578467
 20
26.24338808324695
 11
120.0806121276228
 21
26.60695772005002
  0
LINE
  5
237
100
AcDbEntity
  8
0
  6
ByLayer
 62
    7
370
   -1
100
AcDbLine
 10
120.0806121276228
 20
26.60695772005002
 11
119.9229798712366
 21
26.96493338350542
  0
LINE
  5
238
100
AcDbEntity
  8
0
  6
ByLayer
 62
    7
370
   -1
100
AcDbLine
 10
119.9229798712366
 20
26.96493338350542
 11
119.7528379381025
 21
27.31679388466349
  0
LINE
  5
239
100
AcDbEntity
  8
0
  6
ByLayer
 62
    7
370
   -1
100
AcDbLine
 10
119.7528379381025
 20
27.31679388466349
 11
119.5703432776345
 21
27.66201803457454
  0
LINE
  5
23A
100
AcDbEntity
  8
0
  6
ByLayer
 62
    7
370
   -1
100
AcDbLine
 10
119.5703432776345
 20
27.66201803457454
 11
119.3756528392471
 21
28.00008464428888
  0
LINE
  5
23B
100
AcDbEntity
  8
0
  6
ByLayer
 62
    7
370
   -1
100
AcDbLine
 10
119.3756528392471
 20
28.00008464428888
 11
119.1689235723544
 21
28.33047252485683
  0
LINE
  5
23C
100
AcDbEntity
  8
0
  6
ByLayer
 62
    7
370
   -1
100
AcDbLine
 10
119.1689235723544
 20
28.33047252485683
 11
118.9503124263707
 21
28.65266048732872
  0
LINE
  5
23D
100
AcDbEntity
  8
0
  6
ByLayer
 62
    7
370
   -1
100
AcDbLine
 10
118.9503124263707
 20
28.65266048732872
 11
118.7199763507103
 21
28.96612734275486
  0
LINE
  5
23E
100
AcDbEntity
  8
0
  6
ByLayer
 62
    7
370
   -1
100
AcDbLine
 10
118.7199763507103
 20
28.96612734275486
 11
118.4780722947874
 21
29.27035190218556
  0
LINE
  5
23F
100
AcDbEntity
  8
0
  6
ByLayer
 62
    7
370
   -1
100
AcDbLine
 10
118.4780722947874
 20
29.27035190218556
 11
118.2247572080162
 21
29.56481297667114
  0
LINE
  5
240
100
AcDbEntity
  8
0
  6
ByLayer
 62
    7
370
   -1
100
AcDbLine
 10
118.2247572080162
 20
29.56481297667114
 11
117.960188039811
 21
29.84898937726192
  0
LINE
  5
241
100
AcDbEntity
  8
0
  6
ByLayer
 62
    7
370
   -1
100
AcDbLine
 10
117.960188039811
 20
29.84898937726192
 11
117.6845217395861
 21
30.12235991500822
  0
LINE
  5
242
100
AcDbEntity
  8
0
  6
ByLayer
 62
    7
370
   -1
100
AcDbLine
 10
117.6845217395861
 20
30.12235991500822
 11
117.3979152567557
 21
30.38440340096035
  0
LINE
  5
243
100
AcDbEntity
  8
0
  6
ByLayer
 62
    7
370
   -1
100
AcDbLine
 10
117.3979152567557
 20
30.38440340096035
 11
117.1005255407341
 21
30.63459864616864
  0
LINE
  5
244
100
AcDbEntity
  8
0
  6
ByLayer
 62
    7
370
   -1
100
AcDbLine
 10
117.1005255407341
 20
30.63459864616864
 11
116.7925095409355
 21
30.87242446168339
  0
LINE
  5
245
100
AcDbEntity
  8
0
  6
ByLayer
 62
    7
370
   -1
100
AcDbLine
 10
116.7925095409355
 20
30.87242446168339
 11
116.4740242067742
 21
31.09735965855493
  0
LINE
  5
246
100
AcDbEntity
  8
0
  6
ByLayer
 62
    7
370
   -1
100
AcDbLine
 10
116.4740242067742
 20
31.09735965855493
 11
116.1452264876644
 21
31.30888304783357
  0
LINE
  5
247
100
AcDbEntity
  8
0
  6
ByLayer
 62
    7
370
   -1
100
AcDbLine
 10
116.1452264876644
 20
31.30888304783357
 11
115.8062733330204
 21
31.50647344056963
  0
LINE
  5
248
100
AcDbEntity
  8
0
  6
ByLayer
 62
    7
370
   -1
100
AcDbLine
 10
115.8062733330204
 20
31.50647344056963
 11
115.4573216922564
 21
31.68960964781343
  0
LINE
  5
249
100
AcDbEntity
  8
0
  6
ByLayer
 62
    7
370
   -1
100
AcDbLine
 10
115.4573216922564
 20
31.68960964781343
 11
115.0985285147867
 21
31.85777048061528
  0
LINE
  5
24A
100
AcDbEntity
  8
0
  6
ByLayer
 62
    7
370
   -1
100
AcDbLine
 10
115.0985285147867
 20
31.85777048061528
 11
114.7300507500255
 21
32.01043475002551
  0
LINE
  5
24B
100
AcDbEntity
  8
0
  6
ByLayer
 62
    7
370
   -1
100
AcDbLine
 10
114.7300507500255
 20
32.01043475002551
 11
114.3247964577896
 21
32.17645145070693
  0
LINE
  5
24C
100
AcDbEntity
  8
0
  6
ByLayer
 62
    7
370
   -1
100
AcDbLine
 10
114.3247964577896
 20
32.17645145070693
 11
113.917310460005
 21
32.33613037420731
  0
LINE
  5
24D
100
AcDbEntity
  8
0
  6
ByLayer
 62
    7
370
   -1
100
AcDbLine
 10
113.917310460005
 20
32.33613037420731
 11
113.5076819460243
 21
32.48963378496895
  0
LINE
  5
24E
100
AcDbEntity
  8
0
  6
ByLayer
 62
    7
370
   -1
100
AcDbLine
 10
113.5076819460243
 20
32.48963378496895
 11
113.0960001051999
 21
32.63712394743413
  0
LINE
  5
24F
100
AcDbEntity
  8
0
  6
ByLayer
 62
    7
370
   -1
100
AcDbLine
 10
113.0960001051999
 20
32.63712394743413
 11
112.6823541268843
 21
32.77876312604511
  0
LINE
  5
250
100
AcDbEntity
  8
0
  6
ByLayer
 62
    7
370
   -1
100
AcDbLine
 10
112.6823541268843
 20
32.77876312604511
 11
112.26683320043
 21
32.91471358524421
  0
LINE
  5
251
100
AcDbEntity
  8
0
  6
ByLayer
 62
    7
370
   -1
100
AcDbLine
 10
112.26683320043
 20
32.91471358524421
 11
111.8495265151895
 21
33.04513758947367
  0
LINE
  5
252
100
AcDbEntity
  8
0
  6
ByLayer
 62
    7
370
   -1
100
AcDbLine
 10
111.8495265151895
 20
33.04513758947367
 11
111.4305232605153
 21
33.17019740317579
  0
LINE
  5
253
100
AcDbEntity
  8
0
  6
ByLayer
 62
    7
370
   -1
100
AcDbLine
 10
111.4305232605153
 20
33.17019740317579
 11
111.0099126257598
 21
33.29005529079286
  0
LINE
  5
254
100
AcDbEntity
  8
0
  6
ByLayer
 62
    7
370
   -1
100
AcDbLine
 10
111.0099126257598
 20
33.29005529079286
 11
110.5877838002756
 21
33.40487351676714
  0
LINE
  5
255
100
AcDbEntity
  8
0
  6
ByLayer
 62
    7
370
   -1
100
AcDbLine
 10
110.5877838002756
 20
33.40487351676714
 11
110.1642259734151
 21
33.51481434554093
  0
LINE
  5
256
100
AcDbEntity
  8
0
  6
ByLayer
 62
    7
370
   -1
100
AcDbLine
 10
110.1642259734151
 20
33.51481434554093
 11
109.7393283345309
 21
33.62004004155651
  0
LINE
  5
257
100
AcDbEntity
  8
0
  6
ByLayer
 62
    7
370
   -1
100
AcDbLine
 10
109.7393283345309
 20
33.62004004155651
 11
109.3131800729754
 21
33.72071286925615
  0
LINE
  5
258
100
AcDbEntity
  8
0
  6
ByLayer
 62
    7
370
   -1
100
AcDbLine
 10
109.3131800729754
 20
33.72071286925615
 11
108.8858703781011
 21
33.81699509308214
  0
LINE
  5
259
100
AcDbEntity
  8
0
  6
ByLayer
 62
    7
370
   -1
100
AcDbLine
 10
108.8858703781011
 20
33.81699509308214
 11
108.4574884392605
 21
33.90904897747676
  0
LINE
  5
25A
100
AcDbEntity
  8
0
  6
ByLayer
 62
    7
370
   -1
100
AcDbLine
 10
108.4574884392605
 20
33.90904897747676
 11
108.0281234458061
 21
33.99703678688228
  0
LINE
  5
25B
100
AcDbEntity
  8
0
  6
ByLayer
 62
    7
370
   -1
100
AcDbLine
 10
108.0281234458061
 20
33.99703678688228
 11
107.5978645870904
 21
34.081120785741
  0
LINE
  5
25C
100
AcDbEntity
  8
0
  6
ByLayer
 62
    7
370
   -1
100
AcDbLine
 10
107.5978645870904
 20
34.081120785741
 11
107.1668010524658
 21
34.16146323849519
  0
LINE
  5
25D
100
AcDbEntity
  8
0
  6
ByLayer
 62
    7
370
   -1
100
AcDbLine
 10
107.1668010524658
 20
34.16146323849519
 11
106.735022031285
 21
34.23822640958713
  0
LINE
  5
25E
100
AcDbEntity
  8
0
  6
ByLayer
 62
    7
370
   -1
100
AcDbLine
 10
106.735022031285
 20
34.23822640958713
 11
106.3026167129002
 21
34.3115725634591
  0
LINE
  5
25F
100
AcDbEntity
  8
0
  6
ByLayer
 62
    7
370
   -1
100
AcDbLine
 10
106.3026167129002
 20
34.3115725634591
 11
105.8696742866641
 21
34.38166396455339
  0
LINE
  5
260
100
AcDbEntity
  8
0
  6
ByLayer
 62
    7
370
   -1
100
AcDbLine
 10
105.8696742866641
 20
34.38166396455339
 11
105.4362839419291
 21
34.44866287731227
  0
LINE
  5
261
100
AcDbEntity
  8
0
  6
ByLayer
 62
    7
370
   -1
100
AcDbLine
 10
105.4362839419291
 20
34.44866287731227
 11
105.0025348680477
 21
34.51273156617805
  0
LINE
  5
262
100
AcDbEntity
  8
0
  6
ByLayer
 62
    7
370
   -1
100
AcDbLine
 10
105.0025348680477
 20
34.51273156617805
 11
104.5685162543725
 21
34.57403229559297
  0
LINE
  5
263
100
AcDbEntity
  8
0
  6
ByLayer
 62
    7
370
   -1
100
AcDbLine
 10
104.5685162543725
 20
34.57403229559297
 11
104.1343172902558
 21
34.63272732999933
  0
LINE
  5
264
100
AcDbEntity
  8
0
  6
ByLayer
 62
    7
370
   -1
100
AcDbLine
 10
104.1343172902558
 20
34.63272732999933
 11
103.7000271650502
 21
34.68897893383942
  0
LINE
  5
265
100
AcDbEntity
  8
0
  6
ByLayer
 62
    7
370
   -1
100
AcDbLine
 10
103.7000271650502
 20
34.68897893383942
 11
103.2657350681082
 21
34.74294937155551
  0
LINE
  5
266
100
AcDbEntity
  8
0
  6
ByLayer
 62
    7
370
   -1
100
AcDbLine
 10
103.2657350681082
 20
34.74294937155551
 11
102.8315301887822
 21
34.79480090758988
  0
LINE
  5
267
100
AcDbEntity
  8
0
  6
ByLayer
 62
    7
370
   -1
100
AcDbLine
 10
102.8315301887822
 20
34.79480090758988
 11
102.3975017164248
 21
34.84469580638481
  0
LINE
  5
268
100
AcDbEntity
  8
0
  6
ByLayer
 62
    7
370
   -1
100
AcDbLine
 10
102.3975017164248
 20
34.84469580638481
 11
101.9637388403884
 21
34.8927963323826
  0
LINE
  5
269
100
AcDbEntity
  8
0
  6
ByLayer
 62
    7
370
   -1
100
AcDbLine
 10
101.9637388403884
 20
34.8927963323826
 11
101.5303307500255
 21
34.93926475002552
  0
LINE
  5
26A
100
AcDbEntity
  8
0
  6
ByLayer
 62
    7
370
   -1
100
AcDbLine
 10
101.5303307500255
 20
34.93926475002552
 11
100.6975959703941
 21
35.01450418978921
  0
LINE
  5
26B
100
AcDbEntity
  8
0
  6
ByLayer
 62
    7
370
   -1
100
AcDbLine
 10
100.6975959703941
 20
35.01450418978921
 11
99.86333388654327
 21
35.0796194981038
  0
LINE
  5
26C
100
AcDbEntity
  8
0
  6
ByLayer
 62
    7
370
   -1
100
AcDbLine
 10
99.86333388654327
 20
35.0796194981038
 11
99.02775788103823
 21
35.13445615850458
  0
LINE
  5
26D
100
AcDbEntity
  8
0
  6
ByLayer
 62
    7
370
   -1
100
AcDbLine
 10
99.02775788103823
 20
35.13445615850458
 11
98.19108133644424
 21
35.17885965452687
  0
LINE
  5
26E
100
AcDbEntity
  8
0
  6
ByLayer
 62
    7
370
   -1
100
AcDbLine
 10
98.19108133644424
 20
35.17885965452687
 11
97.35351763532643
 21
35.21267546970595
  0
LINE
  5
26F
100
AcDbEntity
  8
0
  6
ByLayer
 62
    7
370
   -1
100
AcDbLine
 10
97.35351763532643
 20
35.21267546970595
 11
96.51528016025007
 21
35.23574908757712
  0
LINE
  5
270
100
AcDbEntity
  8
0
  6
ByLayer
 62
    7
370
   -1
100
AcDbLine
 10
96.51528016025007
 20
35.23574908757712
 11
95.67658229378033
 21
35.24792599167567
  0
LINE
  5
271
100
AcDbEntity
  8
0
  6
ByLayer
 62
    7
370
   -1
100
AcDbLine
 10
95.67658229378033
 20
35.24792599167567
 11
94.83763741848243
 21
35.2490516655369
  0
LINE
  5
272
100
AcDbEntity
  8
0
  6
ByLayer
 62
    7
370
   -1
100
AcDbLine
 10
94.83763741848243
 20
35.2490516655369
 11
93.99865891692156
 21
35.2389715926961
  0
LINE
  5
273
100
AcDbEntity
  8
0
  6
ByLayer
 62
    7
370
   -1
100
AcDbLine
 10
93.99865891692156
 20
35.2389715926961
 11
93.15986017166291
 21
35.21753125668858
  0
LINE
  5
274
100
AcDbEntity
  8
0
  6
ByLayer
 62
    7
370
   -1
100
AcDbLine
 10
93.15986017166291
 20
35.21753125668858
 11
92.32145456527175
 21
35.18457614104965
  0
LINE
  5
275
100
AcDbEntity
  8
0
  6
ByLayer
 62
    7
370
   -1
100
AcDbLine
 10
92.32145456527175
 20
35.18457614104965
 11
91.48365548031317
 21
35.13995172931455
  0
LINE
  5
276
100
AcDbEntity
  8
0
  6
ByLayer
 62
    7
370
   -1
100
AcDbLine
 10
91.48365548031317
 20
35.13995172931455
 11
90.64667629935249
 21
35.08350350501862
  0
LINE
  5
277
100
AcDbEntity
  8
0
  6
ByLayer
 62
    7
370
   -1
100
AcDbLine
 10
90.64667629935249
 20
35.08350350501862
 11
89.81073040495485
 21
35.01507695169715
  0
LINE
  5
278
100
AcDbEntity
  8
0
  6
ByLayer
 62
    7
370
   -1
100
AcDbLine
 10
89.81073040495485
 20
35.01507695169715
 11
88.97603117968548
 21
34.93451755288543
  0
LINE
  5
279
100
AcDbEntity
  8
0
  6
ByLayer
 62
    7
370
   -1
100
AcDbLine
 10
88.97603117968548
 20
34.93451755288543
 11
88.14279200610957
 21
34.84167079211876
  0
LINE
  5
27A
100
AcDbEntity
  8
0
  6
ByLayer
 62
    7
370
   -1
100
AcDbLine
 10
88.14279200610957
 20
34.84167079211876
 11
87.31122626679233
 21
34.73638215293243
  0
LINE
  5
27B
100
AcDbEntity
  8
0
  6
ByLayer
 62
    7
370
   -1
100
AcDbLine
 10
87.31122626679233
 20
34.73638215293243
 11
86.48154734429897
 21
34.61849711886173
  0
LINE
  5
27C
100
AcDbEntity
  8
0
  6
ByLayer
 62
    7
370
   -1
100
AcDbLine
 10
86.48154734429897
 20
34.61849711886173
 11
85.65396862119468
 21
34.48786117344198
  0
LINE
  5
27D
100
AcDbEntity
  8
0
  6
ByLayer
 62
    7
370
   -1
100
AcDbLine
 10
85.65396862119468
 20
34.48786117344198
 11
84.82870348004465
 21
34.34431980020845
  0
LINE
  5
27E
100
AcDbEntity
  8
0
  6
ByLayer
 62
    7
370
   -1
100
AcDbLine
 10
84.82870348004465
 20
34.34431980020845
 11
84.00596530341413
 21
34.18771848269645
  0
LINE
  5
27F
100
AcDbEntity
  8
0
  6
ByLayer
 62
    7
370
   -1
100
AcDbLine
 10
84.00596530341413
 20
34.18771848269645
 11
83.18596747386829
 21
34.01790270444128
  0
LINE
  5
280
100
AcDbEntity
  8
0
  6
ByLayer
 62
    7
370
   -1
100
AcDbLine
 10
83.18596747386829
 20
34.01790270444128
 11
82.36892337397235
 21
33.83471794897822
  0
LINE
  5
281
100
AcDbEntity
  8
0
  6
ByLayer
 62
    7
370
   -1
100
AcDbLine
 10
82.36892337397235
 20
33.83471794897822
 11
81.55504638629151
 21
33.63800969984257
  0
LINE
  5
282
100
AcDbEntity
  8
0
  6
ByLayer
 62
    7
370
   -1
100
AcDbLine
 10
81.55504638629151
 20
33.63800969984257
 11
80.74454989339097
 21
33.42762344056963
  0
LINE
  5
283
100
AcDbEntity
  8
0
  6
ByLayer
 62
    7
370
   -1
100
AcDbLine
 10
80.74454989339097
 20
33.42762344056963
 11
79.93764727783594
 21
33.20340465469471
  0
LINE
  5
284
100
AcDbEntity
  8
0
  6
ByLayer
 62
    7
370
   -1
100
AcDbLine
 10
79.93764727783594
 20
33.20340465469471
 11
79.13455192219162
 21
32.96519882575308
  0
LINE
  5
285
100
AcDbEntity
  8
0
  6
ByLayer
 62
    7
370
   -1
100
AcDbLine
 10
79.13455192219162
 20
32.96519882575308
 11
78.33547720902321
 21
32.71285143728005
  0
LINE
  5
286
100
AcDbEntity
  8
0
  6
ByLayer
 62
    7
370
   -1
100
AcDbLine
 10
78.33547720902321
 20
32.71285143728005
 11
77.54063652089592
 21
32.44620797281092
  0
LINE
  5
287
100
AcDbEntity
  8
0
  6
ByLayer
 62
    7
370
   -1
100
AcDbLine
 10
77.54063652089592
 20
32.44620797281092
 11
76.75024324037496
 21
32.16511391588098
  0
LINE
  5
288
100
AcDbEntity
  8
0
  6
ByLayer
 62
    7
370
   -1
100
AcDbLine
 10
76.75024324037496
 20
32.16511391588098
 11
75.96451075002551
 21
31.86941475002551
  0
LINE
  5
289
100
AcDbEntity
  8
0
  6
ByLayer
 62
    7
370
   -1
100
AcDbLine
 10
75.96451075002551
 20
31.86941475002551
 11
75.67391524735694
 21
31.73997156147864
  0
LINE
  5
28A
100
AcDbEntity
  8
0
  6
ByLayer
 62
    7
370
   -1
100
AcDbLine
 10
75.67391524735694
 20
31.73997156147864
 11
75.37948375261018
 21
31.60931411157767
  0
LINE
  5
28B
100
AcDbEntity
  8
0
  6
ByLayer
 62
    7
370
   -1
100
AcDbLine
 10
75.37948375261018
 20
31.60931411157767
 11
75.08194814051258
 21
31.47704928360949
  0
LINE
  5
28C
100
AcDbEntity
  8
0
  6
ByLayer
 62
    7
370
   -1
100
AcDbLine
 10
75.08194814051258
 20
31.47704928360949
 11
74.78204028579135
 21
31.34278396086101
  0
LINE
  5
28D
100
AcDbEntity
  8
0
  6
ByLayer
 62
    7
370
   -1
100
AcDbLine
 10
74.78204028579135
 20
31.34278396086101
 11
74.48049206317378
 21
31.20612502661912
  0
LINE
  5
28E
100
AcDbEntity
  8
0
  6
ByLayer
 62
    7
370
   -1
100
AcDbLine
 10
74.48049206317378
 20
31.20612502661912
 11
74.17803534738714
 21
31.06667936417073
  0
LINE
  5
28F
100
AcDbEntity
  8
0
  6
ByLayer
 62
    7
370
   -1
100
AcDbLine
 10
74.17803534738714
 20
31.06667936417073
 11
73.87540201315868
 21
30.92405385680273
  0
LINE
  5
290
100
AcDbEntity
  8
0
  6
ByLayer
 62
    7
370
   -1
100
AcDbLine
 10
73.87540201315868
 20
30.92405385680273
 11
73.57332393521568
 21
30.77785538780202
  0
LINE
  5
291
100
AcDbEntity
  8
0
  6
ByLayer
 62
    7
370
   -1
100
AcDbLine
 10
73.57332393521568
 20
30.77785538780202
 11
73.27253298828539
 21
30.62769084045551
  0
LINE
  5
292
100
AcDbEntity
  8
0
  6
ByLayer
 62
    7
370
   -1
100
AcDbLine
 10
73.27253298828539
 20
30.62769084045551
 11
72.97376104709508
 21
30.47316709805008
  0
LINE
  5
293
100
AcDbEntity
  8
0
  6
ByLayer
 62
    7
370
   -1
100
AcDbLine
 10
72.97376104709508
 20
30.47316709805008
 11
72.67773998637205
 21
30.31389104387265
  0
LINE
  5
294
100
AcDbEntity
  8
0
  6
ByLayer
 62
    7
370
   -1
100
AcDbLine
 10
72.67773998637205
 20
30.31389104387265
 11
72.38520168084355
 21
30.1494695612101
  0
LINE
  5
295
100
AcDbEntity
  8
0
  6
ByLayer
 62
    7
370
   -1
100
AcDbLine
 10
72.38520168084355
 20
30.1494695612101
 11
72.09687800523682
 21
29.97950953334934
  0
LINE
  5
296
100
AcDbEntity
  8
0
  6
ByLayer
 62
    7
370
   -1
100
AcDbLine
 10
72.09687800523682
 20
29.97950953334934
 11
71.81350083427915
 21
29.80361784357726
  0
LINE
  5
297
100
AcDbEntity
  8
0
  6
ByLayer
 62
    7
370
   -1
100
AcDbLine
 10
71.81350083427915
 20
29.80361784357726
 11
71.5358020426978
 21
29.62140137518076
  0
LINE
  5
298
100
AcDbEntity
  8
0
  6
ByLayer
 62
    7
370
   -1
100
AcDbLine
 10
71.5358020426978
 20
29.62140137518076
 11
71.26451350522004
 21
29.43246701144675
  0
LINE
  5
299
100
AcDbEntity
  8
0
  6
ByLayer
 62
    7
370
   -1
100
AcDbLine
 10
71.26451350522004
 20
29.43246701144675
 11
71.00036709657313
 21
29.23642163566212
  0
LINE
  5
29A
100
AcDbEntity
  8
0
  6
ByLayer
 62
    7
370
   -1
100
AcDbLine
 10
71.00036709657313
 20
29.23642163566212
 11
70.74409469148435
 21
29.03287213111376
  0
LINE
  5
29B
100
AcDbEntity
  8
0
  6
ByLayer
 62
    7
370
   -1
100
AcDbLine
 10
70.74409469148435
 20
29.03287213111376
 11
70.49642816468095
 21
28.82142538108859
  0
LINE
  5
29C
100
AcDbEntity
  8
0
  6
ByLayer
 62
    7
370
   -1
100
AcDbLine
 10
70.49642816468095
 20
28.82142538108859
 11
70.25809939089021
 21
28.60168826887349
  0
LINE
  5
29D
100
AcDbEntity
  8
0
  6
ByLayer
 62
    7
370
   -1
100
AcDbLine
 10
70.25809939089021
 20
28.60168826887349
 11
70.02984024483939
 21
28.37326767775537
  0
LINE
  5
29E
100
AcDbEntity
  8
0
  6
ByLayer
 62
    7
370
   -1
100
AcDbLine
 10
70.02984024483939
 20
28.37326767775537
 11
69.81238260125576
 21
28.13577049102112
  0
LINE
  5
29F
100
AcDbEntity
  8
0
  6
ByLayer
 62
    7
370
   -1
100
AcDbLine
 10
69.81238260125576
 20
28.13577049102112
 11
69.60645833486657
 21
27.88880359195765
  0
LINE
  5
2A0
100
AcDbEntity
  8
0
  6
ByLayer
 62
    7
370
   -1
100
AcDbLine
 10
69.60645833486657
 20
27.88880359195765
 11
69.41279932039912
 21
27.63197386385184
  0
LINE
  5
2A1
100
AcDbEntity
  8
0
  6
ByLayer
 62
    7
370
   -1
100
AcDbLine
 10
69.41279932039912
 20
27.63197386385184
 11
69.23213743258066
 21
27.36488818999061
  0
LINE
  5
2A2
100
AcDbEntity
  8
0
  6
ByLayer
 62
    7
370
   -1
100
AcDbLine
 10
69.23213743258066
 20
27.36488818999061
 11
69.06520454613843
 21
27.08715345366084
  0
LINE
  5
2A3
100
AcDbEntity
  8
0
  6
ByLayer
 62
    7
370
   -1
100
AcDbLine
 10
69.06520454613843
 20
27.08715345366084
 11
68.91273253579975
 21
26.79837653814945
  0
LINE
  5
2A4
100
AcDbEntity
  8
0
  6
ByLayer
 62
    7
370
   -1
100
AcDbLine
 10
68.91273253579975
 20
26.79837653814945
 11
68.77545327629184
 21
26.49816432674332
  0
LINE
  5
2A5
100
AcDbEntity
  8
0
  6
ByLayer
 62
    7
370
   -1
100
AcDbLine
 10
68.77545327629184
 20
26.49816432674332
 11
68.65409864234198
 21
26.18612370272935
  0
LINE
  5
2A6
100
AcDbEntity
  8
0
  6
ByLayer
 62
    7
370
   -1
100
AcDbLine
 10
68.65409864234198
 20
26.18612370272935
 11
68.54940050867745
 21
25.86186154939445
  0
LINE
  5
2A7
100
AcDbEntity
  8
0
  6
ByLayer
 62
    7
370
   -1
100
AcDbLine
 10
68.54940050867745
 20
25.86186154939445
 11
68.46209075002551
 21
25.52498475002551
  0
LINE
  5
2A8
100
AcDbEntity
  8
0
  6
ByLayer
 62
    7
370
   -1
100
AcDbLine
 10
68.46209075002551
 20
25.52498475002551
 11
68.40564177181062
 21
24.93377777442886
  0
LINE
  5
2A9
100
AcDbEntity
  8
0
  6
ByLayer
 62
    7
370
   -1
100
AcDbLine
 10
68.40564177181062
 20
24.93377777442886
 11
68.36753438736565
 21
24.34374018354571
  0
LINE
  5
2AA
100
AcDbEntity
  8
0
  6
ByLayer
 62
    7
370
   -1
100
AcDbLine
 10
68.36753438736565
 20
24.34374018354571
 11
68.34712727682891
 21
23.75490698123628
  0
LINE
  5
2AB
100
AcDbEntity
  8
0
  6
ByLayer
 62
    7
370
   -1
100
AcDbLine
 10
68.34712727682891
 20
23.75490698123628
 11
68.3437791203387
 21
23.16731317136082
  0
LINE
  5
2AC
100
AcDbEntity
  8
0
  6
ByLayer
 62
    7
370
   -1
100
AcDbLine
 10
68.3437791203387
 20
23.16731317136082
 11
68.3568485980333
 21
22.58099375777953
  0
LINE
  5
2AD
100
AcDbEntity
  8
0
  6
ByLayer
 62
    7
370
   -1
100
AcDbLine
 10
68.3568485980333
 20
22.58099375777953
 11
68.38569439005101
 21
21.99598374435266
  0
LINE
  5
2AE
100
AcDbEntity
  8
0
  6
ByLayer
 62
    7
370
   -1
100
AcDbLine
 10
68.38569439005101
 20
21.99598374435266
 11
68.42967517653015
 21
21.41231813494042
  0
LINE
  5
2AF
100
AcDbEntity
  8
0
  6
ByLayer
 62
    7
370
   -1
100
AcDbLine
 10
68.42967517653015
 20
21.41231813494042
 11
68.488149637609
 21
20.83003193340305
  0
LINE
  5
2B0
100
AcDbEntity
  8
0
  6
ByLayer
 62
    7
370
   -1
100
AcDbLine
 10
68.488149637609
 20
20.83003193340305
 11
68.56047645342585
 21
20.24916014360075
  0
LINE
  5
2B1
100
AcDbEntity
  8
0
  6
ByLayer
 62
    7
370
   -1
100
AcDbLine
 10
68.56047645342585
 20
20.24916014360075
 11
68.64601430411902
 21
19.66973776939378
  0
LINE
  5
2B2
100
AcDbEntity
  8
0
  6
ByLayer
 62
    7
370
   -1
100
AcDbLine
 10
68.64601430411902
 20
19.66973776939378
 11
68.74412186982678
 21
19.09179981464234
  0
LINE
  5
2B3
100
AcDbEntity
  8
0
  6
ByLayer
 62
    7
370
   -1
100
AcDbLine
 10
68.74412186982678
 20
19.09179981464234
 11
68.85415783068746
 21
18.51538128320668
  0
LINE
  5
2B4
100
AcDbEntity
  8
0
  6
ByLayer
 62
    7
370
   -1
100
AcDbLine
 10
68.85415783068746
 20
18.51538128320668
 11
68.97548086683931
 21
17.940517178947
  0
LINE
  5
2B5
100
AcDbEntity
  8
0
  6
ByLayer
 62
    7
370
   -1
100
AcDbLine
 10
68.97548086683931
 20
17.940517178947
 11
69.10744965842066
 21
17.36724250572354
  0
LINE
  5
2B6
100
AcDbEntity
  8
0
  6
ByLayer
 62
    7
370
   -1
100
AcDbLine
 10
69.10744965842066
 20
17.36724250572354
 11
69.2494228855698
 21
16.79559226739653
  0
LINE
  5
2B7
100
AcDbEntity
  8
0
  6
ByLayer
 62
    7
370
   -1
100
AcDbLine
 10
69.2494228855698
 20
16.79559226739653
 11
69.40075922842502
 21
16.22560146782619
  0
LINE
  5
2B8
100
AcDbEntity
  8
0
  6
ByLayer
 62
    7
370
   -1
100
AcDbLine
 10
69.40075922842502
 20
16.22560146782619
 11
69.56081736712463
 21
15.65730511087275
  0
LINE
  5
2B9
100
AcDbEntity
  8
0
  6
ByLayer
 62
    7
370
   -1
100
AcDbLine
 10
69.56081736712463
 20
15.65730511087275
 11
69.72895598180692
 21
15.09073820039644
  0
LINE
  5
2BA
100
AcDbEntity
  8
0
  6
ByLayer
 62
    7
370
   -1
100
AcDbLine
 10
69.90453375261018
 20
14.52593574025747
 11
70.08690935967272
 21
13.96293273431607
  0
LINE
  5
2BB
100
AcDbEntity
  8
0
  6
ByLayer
 62
    7
370
   -1
100
AcDbLine
 10
70.08690935967272
 20
13.96293273431607
 11
70.27544148313282
 21
13.40176418643249
  0
LINE
  5
2BC
100
AcDbEntity
  8
0
  6
ByLayer
 62
    7
370
   -1
100
AcDbLine
 10
70.27544148313282
 20
13.40176418643249
 11
70.4694888031288
 21
12.84246510046693
  0
LINE
  5
2BD
100
AcDbEntity
  8
0
  6
ByLayer
 62
    7
370
   -1
100
AcDbLine
 10
70.4694888031288
 20
12.84246510046693
 11
70.66840999979894
 21
12.28507048027962
  0
LINE
  5
2BE
100
AcDbEntity
  8
0
  6
ByLayer
 62
    7
370
   -1
100
AcDbLine
 10
70.66840999979894
 20
12.28507048027962
 11
70.87156375328152
 21
11.7296153297308
  0
LINE
  5
2BF
100
AcDbEntity
  8
0
  6
ByLayer
 62
    7
370
   -1
100
AcDbLine
 10
71.07830874371487
 20
11.17613465268068
 11
71.28800365123728
 21
10.6246634529895
  0
LINE
  5
2C0
100
AcDbEntity
  8
0
  6
ByLayer
 62
    7
370
   -1
100
AcDbLine
 10
71.28800365123728
 20
10.6246634529895
 11
71.50000715598705
 21
10.07523673451748
  0
LINE
  5
2C1
100
AcDbEntity
  8
0
  6
ByLayer
 62
    7
370
   -1
100
AcDbLine
 10
71.50000715598705
 20
10.07523673451748
 11
71.71367793810245
 21
9.527889501124848
  0
LINE
  5
2C2
100
AcDbEntity
  8
0
  6
ByLayer
 62
    7
370
   -1
100
AcDbLine
 10
71.71367793810245
 20
9.527889501124848
 11
71.92837467772179
 21
8.982656756671826
  0
LINE
  5
2C3
100
AcDbEntity
  8
0
  6
ByLayer
 62
    7
370
   -1
100
AcDbLine
 10
71.92837467772179
 20
8.982656756671826
 11
72.14345605498339
 21
8.439573505018643
  0
LINE
  5
2C4
100
AcDbEntity
  8
0
  6
ByLayer
 62
    7
370
   -1
100
AcDbLine
 10
72.14345605498339
 20
8.439573505018643
 11
72.35828075002551
 21
7.898674750025515
  0
LINE
  5
2C5
100
AcDbEntity
  8
0
  6
ByLayer
 62
    7
370
   -1
100
AcDbLine
 10
72.56558560619014
 20
7.440963122352728
 11
72.78300059830184
 21
6.985642352992856
  0
LINE
  5
2C6
100
AcDbEntity
  8
0
  6
ByLayer
 62
    7
370
   -1
100
AcDbLine
 10
72.78300059830184
 20
6.985642352992856
 11
73.01050410372294
 21
6.533295870498142
  0
LINE
  5
2C7
100
AcDbEntity
  8
0
  6
ByLayer
 62
    7
370
   -1
100
AcDbLine
 10
73.01050410372294
 20
6.533295870498142
 11
73.24807449981573
 21
6.084507103420836
  0
LINE
  5
2C8
100
AcDbEntity
  8
0
  6
ByLayer
 62
    7
370
   -1
100
AcDbLine
 10
73.24807449981573
 20
6.084507103420836
 11
73.49569016394246
 21
5.639859480313185
  0
LINE
  5
2C9
100
AcDbEntity
  8
0
  6
ByLayer
 62
    7
370
   -1
100
AcDbLine
 10
73.49569016394246
 20
5.639859480313185
 11
73.75332947346548
 21
5.19993642972744
  0
LINE
  5
2CA
100
AcDbEntity
  8
0
  6
ByLayer
 62
    7
370
   -1
100
AcDbLine
 10
73.75332947346548
 20
5.19993642972744
 11
74.02097080574703
 21
4.765321380215842
  0
LINE
  5
2CB
100
AcDbEntity
  8
0
  6
ByLayer
 62
    7
370
   -1
100
AcDbLine
 10
74.02097080574703
 20
4.765321380215842
 11
74.29859253814945
 21
4.336597760330642
  0
LINE
  5
2CC
100
AcDbEntity
  8
0
  6
ByLayer
 62
    7
370
   -1
100
AcDbLine
 10
74.29859253814945
 20
4.336597760330642
 11
74.58617304803498
 21
3.914348998624086
  0
LINE
  5
2CD
100
AcDbEntity
  8
0
  6
ByLayer
 62
    7
370
   -1
100
AcDbLine
 10
74.58617304803498
 20
3.914348998624086
 11
74.88369071276593
 21
3.499158523648423
  0
LINE
  5
2CE
100
AcDbEntity
  8
0
  6
ByLayer
 62
    7
370
   -1
100
AcDbLine
 10
74.88369071276593
 20
3.499158523648423
 11
75.19112390970461
 21
3.091609763955899
  0
LINE
  5
2CF
100
AcDbEntity
  8
0
  6
ByLayer
 62
    7
370
   -1
100
AcDbLine
 10
75.19112390970461
 20
3.091609763955899
 11
75.50845101621329
 21
2.692286148098762
  0
LINE
  5
2D0
100
AcDbEntity
  8
0
  6
ByLayer
 62
    7
370
   -1
100
AcDbLine
 10
75.50845101621329
 20
2.692286148098762
 11
75.83565040965426
 21
2.301771104629258
  0
LINE
  5
2D1
100
AcDbEntity
  8
0
  6
ByLayer
 62
    7
370
   -1
100
AcDbLine
 10
75.83565040965426
 20
2.301771104629258
 11
76.17270046738982
 21
1.920648062099636
  0
LINE
  5
2D2
100
AcDbEntity
  8
0
  6
ByLayer
 62
    7
370
   -1
100
AcDbLine
 10
76.17270046738982
 20
1.920648062099636
 11
76.51957956678224
 21
1.549500449062141
  0
LINE
  5
2D3
100
AcDbEntity
  8
0
  6
ByLayer
 62
    7
370
   -1
100
AcDbLine
 10
76.51957956678224
 20
1.549500449062141
 11
76.87626608519386
 21
1.188911694069022
  0
LINE
  5
2D4
100
AcDbEntity
  8
0
  6
ByLayer
 62
    7
370
   -1
100
AcDbLine
 10
76.87626608519386
 20
1.188911694069022
 11
77.24273839998691
 21
0.839465225672527
  0
LINE
  5
2D5
100
AcDbEntity
  8
0
  6
ByLayer
 62
    7
370
   -1
100
AcDbLine
 10
77.24273839998691
 20
0.839465225672527
 11
77.61897488852372
 21
0.5017444724249017
  0
LINE
  5
2D6
100
AcDbEntity
  8
0
  6
ByLayer
 62
    7
370
   -1
100
AcDbLine
 10
77.61897488852372
 20
0.5017444724249017
 11
78.00495392816656
 21
0.1763328628783946
  0
LINE
  5
2D7
100
AcDbEntity
  8
0
  6
ByLayer
 62
    7
370
   -1
100
AcDbLine
 10
78.00495392816656
 20
0.1763328628783946
 11
78.40065389627773
 21
-0.1361861744147477
  0
LINE
  5
2D8
100
AcDbEntity
  8
0
  6
ByLayer
 62
    7
370
   -1
100
AcDbLine
 10
78.40065389627773
 20
-0.1361861744147477
 11
78.80605317021953
 21
-0.4352292109022775
  0
LINE
  5
2D9
100
AcDbEntity
  8
0
  6
ByLayer
 62
    7
370
   -1
100
AcDbLine
 10
78.80605317021953
 20
-0.4352292109022775
 11
79.22113012735424
 21
-0.7202128180319476
  0
LINE
  5
2DA
100
AcDbEntity
  8
0
  6
ByLayer
 62
    7
370
   -1
100
AcDbLine
 10
79.22113012735424
 20
-0.7202128180319476
 11
79.64586314504413
 21
-0.9905535672515111
  0
LINE
  5
2DB
100
AcDbEntity
  8
0
  6
ByLayer
 62
    7
370
   -1
100
AcDbLine
 10
79.64586314504413
 20
-0.9905535672515111
 11
80.08023060065153
 21
-1.24566803000872
  0
LINE
  5
2DC
100
AcDbEntity
  8
0
  6
ByLayer
 62
    7
370
   -1
100
AcDbLine
 10
80.08023060065153
 20
-1.24566803000872
 11
80.52421087153871
 21
-1.484972777751327
  0
LINE
  5
2DD
100
AcDbEntity
  8
0
  6
ByLayer
 62
    7
370
   -1
100
AcDbLine
 10
80.52421087153871
 20
-1.484972777751327
 11
80.97778233506796
 21
-1.707884381927085
  0
LINE
  5
2DE
100
AcDbEntity
  8
0
  6
ByLayer
 62
    7
370
   -1
100
AcDbLine
 10
80.97778233506796
 20
-1.707884381927085
 11
81.44092336860159
 21
-1.913819413983748
  0
LINE
  5
2DF
100
AcDbEntity
  8
0
  6
ByLayer
 62
    7
370
   -1
100
AcDbLine
 10
81.44092336860159
 20
-1.913819413983748
 11
81.91361234950186
 21
-2.102194445369066
  0
LINE
  5
2E0
100
AcDbEntity
  8
0
  6
ByLayer
 62
    7
370
   -1
100
AcDbLine
 10
81.91361234950186
 20
-2.102194445369066
 11
82.39582765513106
 21
-2.272426047530793
  0
LINE
  5
2E1
100
AcDbEntity
  8
0
  6
ByLayer
 62
    7
370
   -1
100
AcDbLine
 10
82.39582765513106
 20
-2.272426047530793
 11
82.88754766285152
 21
-2.423930791916683
  0
LINE
  5
2E2
100
AcDbEntity
  8
0
  6
ByLayer
 62
    7
370
   -1
100
AcDbLine
 10
82.88754766285152
 20
-2.423930791916683
 11
83.38875075002551
 21
-2.556125249974489
  0
LINE
  5
2E3
100
AcDbEntity
  8
0
  6
ByLayer
 62
    7
370
   -1
100
AcDbLine
 10
83.38875075002551
 20
-2.556125249974489
 11
84.18435135255648
 21
-2.799236594340238
  0
LINE
  5
2E4
100
AcDbEntity
  8
0
  6
ByLayer
 62
    7
370
   -1
100
AcDbLine
 10
84.18435135255648
 20
-2.799236594340238
 11
84.98466160565306
 21
-3.028705661508174
  0
LINE
  5
2E5
100
AcDbEntity
  8
0
  6
ByLayer
 62
    7
370
   -1
100
AcDbLine
 10
84.98466160565306
 20
-3.028705661508174
 11
85.78937869369977
 21
-3.244411776777886
  0
LINE
  5
2E6
100
AcDbEntity
  8
0
  6
ByLayer
 62
    7
370
   -1
100
AcDbLine
 10
85.78937869369977
 20
-3.244411776777886
 11
86.59819980108121
 21
-3.446234265448961
  0
LINE
  5
2E7
100
AcDbEntity
  8
0
  6
ByLayer
 62
    7
370
   -1
100
AcDbLine
 10
86.59819980108121
 20
-3.446234265448961
 11
87.41082211218186
 21
-3.634052452820986
  0
LINE
  5
2E8
100
AcDbEntity
  8
0
  6
ByLayer
 62
    7
370
   -1
100
AcDbLine
 10
87.41082211218186
 20
-3.634052452820986
 11
88.22694281138634
 21
-3.807745664193548
  0
LINE
  5
2E9
100
AcDbEntity
  8
0
  6
ByLayer
 62
    7
370
   -1
100
AcDbLine
 10
88.22694281138634
 20
-3.807745664193548
 11
89.04625908307912
 21
-3.967193224866234
  0
LINE
  5
2EA
100
AcDbEntity
  8
0
  6
ByLayer
 62
    7
370
   -1
100
AcDbLine
 10
89.04625908307912
 20
-3.967193224866234
 11
89.8684681116448
 21
-4.112274460138631
  0
LINE
  5
2EB
100
AcDbEntity
  8
0
  6
ByLayer
 62
    7
370
   -1
100
AcDbLine
 10
89.8684681116448
 20
-4.112274460138631
 11
90.69326708146788
 21
-4.242868695310328
  0
LINE
  5
2EC
100
AcDbEntity
  8
0
  6
ByLayer
 62
    7
370
   -1
100
AcDbLine
 10
90.69326708146788
 20
-4.242868695310328
 11
91.52035317693294
 21
-4.358855255680909
  0
LINE
  5
2ED
100
AcDbEntity
  8
0
  6
ByLayer
 62
    7
370
   -1
100
AcDbLine
 10
91.52035317693294
 20
-4.358855255680909
 11
92.34942358242456
 21
-4.460113466549963
  0
LINE
  5
2EE
100
AcDbEntity
  8
0
  6
ByLayer
 62
    7
370
   -1
100
AcDbLine
 10
92.34942358242456
 20
-4.460113466549963
 11
93.1801754823272
 21
-4.546522653217077
  0
LINE
  5
2EF
100
AcDbEntity
  8
0
  6
ByLayer
 62
    7
370
   -1
100
AcDbLine
 10
93.1801754823272
 20
-4.546522653217077
 11
94.01230606102548
 21
-4.617962140981838
  0
LINE
  5
2F0
100
AcDbEntity
  8
0
  6
ByLayer
 62
    7
370
   -1
100
AcDbLine
 10
94.01230606102548
 20
-4.617962140981838
 11
94.84551250290389
 21
-4.674311255143833
  0
LINE
  5
2F1
100
AcDbEntity
  8
0
  6
ByLayer
 62
    7
370
   -1
100
AcDbLine
 10
94.84551250290389
 20
-4.674311255143833
 11
95.67949199234701
 21
-4.71544932100265
  0
LINE
  5
2F2
100
AcDbEntity
  8
0
  6
ByLayer
 62
    7
370
   -1
100
AcDbLine
 10
95.67949199234701
 20
-4.71544932100265
 11
96.51394171373938
 21
-4.741255663857874
  0
LINE
  5
2F3
100
AcDbEntity
  8
0
  6
ByLayer
 62
    7
370
   -1
100
AcDbLine
 10
96.51394171373938
 20
-4.741255663857874
 11
97.34855885146553
 21
-4.751609609009094
  0
LINE
  5
2F4
100
AcDbEntity
  8
0
  6
ByLayer
 62
    7
370
   -1
100
AcDbLine
 10
97.34855885146553
 20
-4.751609609009094
 11
98.18304058991004
 21
-4.746390481755897
  0
LINE
  5
2F5
100
AcDbEntity
  8
0
  6
ByLayer
 62
    7
370
   -1
100
AcDbLine
 10
98.18304058991004
 20
-4.746390481755897
 11
99.01708411345741
 21
-4.725477607397869
  0
LINE
  5
2F6
100
AcDbEntity
  8
0
  6
ByLayer
 62
    7
370
   -1
100
AcDbLine
 10
99.01708411345741
 20
-4.725477607397869
 11
99.85038660649221
 21
-4.688750311234599
  0
LINE
  5
2F7
100
AcDbEntity
  8
0
  6
ByLayer
 62
    7
370
   -1
100
AcDbLine
 10
99.85038660649221
 20
-4.688750311234599
 11
100.682645253399
 21
-4.636087918565671
  0
LINE
  5
2F8
100
AcDbEntity
  8
0
  6
ByLayer
 62
    7
370
   -1
100
AcDbLine
 10
100.682645253399
 20
-4.636087918565671
 11
101.5135572385623
 21
-4.567369754690676
  0
LINE
  5
2F9
100
AcDbEntity
  8
0
  6
ByLayer
 62
    7
370
   -1
100
AcDbLine
 10
101.5135572385623
 20
-4.567369754690676
 11
102.3428197463667
 21
-4.482475144909198
  0
LINE
  5
2FA
100
AcDbEntity
  8
0
  6
ByLayer
 62
    7
370
   -1
100
AcDbLine
 10
102.3428197463667
 20
-4.482475144909198
 11
103.1701299611967
 21
-4.381283414520825
  0
LINE
  5
2FB
100
AcDbEntity
  8
0
  6
ByLayer
 62
    7
370
   -1
100
AcDbLine
 10
103.1701299611967
 20
-4.381283414520825
 11
103.9951850674368
 21
-4.263673888825146
  0
LINE
  5
2FC
100
AcDbEntity
  8
0
  6
ByLayer
 62
    7
370
   -1
100
AcDbLine
 10
103.9951850674368
 20
-4.263673888825146
 11
104.8176822494716
 21
-4.129525893121745
  0
LINE
  5
2FD
100
AcDbEntity
  8
0
  6
ByLayer
 62
    7
370
   -1
100
AcDbLine
 10
104.8176822494716
 20
-4.129525893121745
 11
105.6373186916857
 21
-3.978718752710211
  0
LINE
  5
2FE
100
AcDbEntity
  8
0
  6
ByLayer
 62
    7
370
   -1
100
AcDbLine
 10
105.6373186916857
 20
-3.978718752710211
 11
106.4537915784636
 21
-3.811131792890132
  0
LINE
  5
2FF
100
AcDbEntity
  8
0
  6
ByLayer
 62
    7
370
   -1
100
AcDbLine
 10
106.4537915784636
 20
-3.811131792890132
 11
107.2667980941898
 21
-3.626644338961092
  0
LINE
  5
300
100
AcDbEntity
  8
0
  6
ByLayer
 62
    7
370
   -1
100
AcDbLine
 10
107.2667980941898
 20
-3.626644338961092
 11
108.076035423249
 21
-3.425135716222681
  0
LINE
  5
301
100
AcDbEntity
  8
0
  6
ByLayer
 62
    7
370
   -1
100
AcDbLine
 10
108.076035423249
 20
-3.425135716222681
 11
108.8812007500255
 21
-3.206485249974481
  0
LINE
  5
302
100
AcDbEntity
  8
0
  6
ByLayer
 62
    7
370
   -1
100
AcDbLine
 10
108.8812007500255
 20
-3.206485249974481
 11
109.2490598007455
 21
-3.094039692927051
  0
LINE
  5
303
100
AcDbEntity
  8
0
  6
ByLayer
 62
    7
370
   -1
100
AcDbLine
 10
109.2490598007455
 20
-3.094039692927051
 11
109.6140133014672
 21
-2.972112760296391
  0
LINE
  5
304
100
AcDbEntity
  8
0
  6
ByLayer
 62
    7
370
   -1
100
AcDbLine
 10
109.6140133014672
 20
-2.972112760296391
 11
109.9757702911621
 21
-2.840794543720916
  0
LINE
  5
305
100
AcDbEntity
  8
0
  6
ByLayer
 62
    7
370
   -1
100
AcDbLine
 10
109.9757702911621
 20
-2.840794543720916
 11
110.3340398088017
 21
-2.70017513483904
  0
LINE
  5
306
100
AcDbEntity
  8
0
  6
ByLayer
 62
    7
370
   -1
100
AcDbLine
 10
110.3340398088017
 20
-2.70017513483904
 11
110.6885308933574
 21
-2.550344625289175
  0
LINE
  5
307
100
AcDbEntity
  8
0
  6
ByLayer
 62
    7
370
   -1
100
AcDbLine
 10
110.6885308933574
 20
-2.550344625289175
 11
111.0389525838008
 21
-2.391393106709739
  0
LINE
  5
308
100
AcDbEntity
  8
0
  6
ByLayer
 62
    7
370
   -1
100
AcDbLine
 10
111.0389525838008
 20
-2.391393106709739
 11
111.3850139191034
 21
-2.223410670739144
  0
LINE
  5
309
100
AcDbEntity
  8
0
  6
ByLayer
 62
    7
370
   -1
100
AcDbLine
 10
111.3850139191034
 20
-2.223410670739144
 11
111.7264239382367
 21
-2.046487409015805
  0
LINE
  5
30A
100
AcDbEntity
  8
0
  6
ByLayer
 62
    7
370
   -1
100
AcDbLine
 10
111.7264239382367
 20
-2.046487409015805
 11
112.0628916801722
 21
-1.860713413178136
  0
LINE
  5
30B
100
AcDbEntity
  8
0
  6
ByLayer
 62
    7
370
   -1
100
AcDbLine
 10
112.0628916801722
 20
-1.860713413178136
 11
112.3941261838814
 21
-1.666178774864552
  0
LINE
  5
30C
100
AcDbEntity
  8
0
  6
ByLayer
 62
    7
370
   -1
100
AcDbLine
 10
112.3941261838814
 20
-1.666178774864552
 11
112.7198364883357
 21
-1.462973585713467
  0
LINE
  5
30D
100
AcDbEntity
  8
0
  6
ByLayer
 62
    7
370
   -1
100
AcDbLine
 10
112.7198364883357
 20
-1.462973585713467
 11
113.0397316325068
 21
-1.251187937363294
  0
LINE
  5
30E
100
AcDbEntity
  8
0
  6
ByLayer
 62
    7
370
   -1
100
AcDbLine
 10
113.0397316325068
 20
-1.251187937363294
 11
113.3535206553661
 21
-1.030911921452449
  0
LINE
  5
30F
100
AcDbEntity
  8
0
  6
ByLayer
 62
    7
370
   -1
100
AcDbLine
 10
113.3535206553661
 20
-1.030911921452449
 11
113.660912595885
 21
-0.8022356296193452
  0
LINE
  5
310
100
AcDbEntity
  8
0
  6
ByLayer
 62
    7
370
   -1
100
AcDbLine
 10
113.660912595885
 20
-0.8022356296193452
 11
113.9616164930351
 21
-0.5652491535023978
  0
LINE
  5
311
100
AcDbEntity
  8
0
  6
ByLayer
 62
    7
370
   -1
100
AcDbLine
 10
113.9616164930351
 20
-0.5652491535023978
 11
114.255341385788
 21
-0.3200425847400205
  0
LINE
  5
312
100
AcDbEntity
  8
0
  6
ByLayer
 62
    7
370
   -1
100
AcDbLine
 10
114.255341385788
 20
-0.3200425847400205
 11
114.541796313115
 21
-0.06670601497062734
  0
LINE
  5
313
100
AcDbEntity
  8
0
  6
ByLayer
 62
    7
370
   -1
100
AcDbLine
 10
114.541796313115
 20
-0.06670601497062734
 11
114.8206903139878
 21
0.1946704641673672
  0
LINE
  5
314
100
AcDbEntity
  8
0
  6
ByLayer
 62
    7
370
   -1
100
AcDbLine
 10
114.8206903139878
 20
0.1946704641673672
 11
115.0917324273777
 21
0.4639967610355483
  0
LINE
  5
315
100
AcDbEntity
  8
0
  6
ByLayer
 62
    7
370
   -1
100
AcDbLine
 10
115.0917324273777
 20
0.4639967610355483
 11
115.3546316922564
 21
0.7411827839955024
  0
LINE
  5
316
100
AcDbEntity
  8
0
  6
ByLayer
 62
    7
370
   -1
100
AcDbLine
 10
115.3546316922564
 20
0.7411827839955024
 11
115.6090971475953
 21
1.026138441408815
  0
LINE
  5
317
100
AcDbEntity
  8
0
  6
ByLayer
 62
    7
370
   -1
100
AcDbLine
 10
115.6090971475953
 20
1.026138441408815
 11
115.8548378323658
 21
1.318773641637071
  0
LINE
  5
318
100
AcDbEntity
  8
0
  6
ByLayer
 62
    7
370
   -1
100
AcDbLine
 10
115.8548378323658
 20
1.318773641637071
 11
116.0915627855396
 21
1.618998293041858
  0
LINE
  5
319
100
AcDbEntity
  8
0
  6
ByLayer
 62
    7
370
   -1
100
AcDbLine
 10
116.0915627855396
 20
1.618998293041858
 11
116.3189810460881
 21
1.926722303984759
  0
LINE
  5
31A
100
AcDbEntity
  8
0
  6
ByLayer
 62
    7
370
   -1
100
AcDbLine
 10
116.3189810460881
 20
1.926722303984759
 11
116.5368016529828
 21
2.241855582827363
  0
LINE
  5
31B
100
AcDbEntity
  8
0
  6
ByLayer
 62
    7
370
   -1
100
AcDbLine
 10
116.5368016529828
 20
2.241855582827363
 11
116.7447336451952
 21
2.564308037931252
  0
LINE
  5
31C
100
AcDbEntity
  8
0
  6
ByLayer
 62
    7
370
   -1
100
AcDbLine
 10
116.7447336451952
 20
2.564308037931252
 11
116.9424860616968
 21
2.893989577658016
  0
LINE
  5
31D
100
AcDbEntity
  8
0
  6
ByLayer
 62
    7
370
   -1
100
AcDbLine
 10
116.9424860616968
 20
2.893989577658016
 11
117.1297679414592
 21
3.230810110369236
  0
LINE
  5
31E
100
AcDbEntity
  8
0
  6
ByLayer
 62
    7
370
   -1
100
AcDbLine
 10
117.1297679414592
 20
3.230810110369236
 11
117.3062883234537
 21
3.574679544426502
  0
LINE
  5
31F
100
AcDbEntity
  8
0
  6
ByLayer
 62
    7
370
   -1
100
AcDbLine
 10
117.3062883234537
 20
3.574679544426502
 11
117.471756246652
 21
3.925507788191397
  0
LINE
  5
320
100
AcDbEntity
  8
0
  6
ByLayer
 62
    7
370
   -1
100
AcDbLine
 10
117.471756246652
 20
3.925507788191397
 11
117.6258807500255
 21
4.283204750025515
  0
LINE
  5
321
100
AcDbEntity
  8
0
  6
ByLayer
 62
    7
370
   -1
100
AcDbLine
 10
117.6258807500255
 20
4.283204750025515
 11
117.8865761029845
 21
4.82767801644826
  0
LINE
  5
322
100
AcDbEntity
  8
0
  6
ByLayer
 62
    7
370
   -1
100
AcDbLine
 10
117.8865761029845
 20
4.82767801644826
 11
118.1352185372767
 21
5.376620558826832
  0
LINE
  5
323
100
AcDbEntity
  8
0
  6
ByLayer
 62
    7
370
   -1
100
AcDbLine
 10
118.1352185372767
 20
5.376620558826832
 11
118.3719951966705
 21
5.929848749891247
  0
LINE
  5
324
100
AcDbEntity
  8
0
  6
ByLayer
 62
    7
370
   -1
100
AcDbLine
 10
118.3719951966705
 20
5.929848749891247
 11
118.597093224934
 21
6.487178962371525
  0
LINE
  5
325
100
AcDbEntity
  8
0
  6
ByLayer
 62
    7
370
   -1
100
AcDbLine
 10
118.597093224934
 20
6.487178962371525
 11
118.8106997658357
 21
7.048427568997687
  0
LINE
  5
326
100
AcDbEntity
  8
0
  6
ByLayer
 62
    7
370
   -1
100
AcDbLine
 10
118.8106997658357
 20
7.048427568997687
 11
119.0130019631436
 21
7.613410942499752
  0
LINE
  5
327
100
AcDbEntity
  8
0
  6
ByLayer
 62
    7
370
   -1
100
AcDbLine
 10
119.0130019631436
 20
7.613410942499752
 11
119.204186960626
 21
8.181945455607737
  0
LINE
  5
328
100
AcDbEntity
  8
0
  6
ByLayer
 62
    7
370
   -1
100
AcDbLine
 10
119.204186960626
 20
8.181945455607737
 11
119.3844419020513
 21
8.753847481051663
  0
LINE
  5
329
100
AcDbEntity
  8
0
  6
ByLayer
 62
    7
370
   -1
100
AcDbLine
 10
119.3844419020513
 20
8.753847481051663
 11
119.5539539311876
 21
9.328933391561547
  0
LINE
  5
32A
100
AcDbEntity
  8
0
  6
ByLayer
 62
    7
370
   -1
100
AcDbLine
 10
119.5539539311876
 20
9.328933391561547
 11
119.7129101918032
 21
9.907019559867409
  0
LINE
  5
32B
100
AcDbEntity
  8
0
  6
ByLayer
 62
    7
370
   -1
100
AcDbLine
 10
119.7129101918032
 20
9.907019559867409
 11
119.8614978276664
 21
10.48792235869927
  0
LINE
  5
32C
100
AcDbEntity
  8
0
  6
ByLayer
 62
    7
370
   -1
100
AcDbLine
 10
119.8614978276664
 20
10.48792235869927
 11
119.9999039825454
 21
11.07145816078715
  0
LINE
  5
32D
100
AcDbEntity
  8
0
  6
ByLayer
 62
    7
370
   -1
100
AcDbLine
 10
119.9999039825454
 20
11.07145816078715
 11
120.1283158002085
 21
11.65744333886107
  0
LINE
  5
32E
100
AcDbEntity
  8
0
  6
ByLayer
 62
    7
370
   -1
100
AcDbLine
 10
120.1283158002085
 20
11.65744333886107
 11
120.2469204244238
 21
12.24569426565104
  0
LINE
  5
32F
100
AcDbEntity
  8
0
  6
ByLayer
 62
    7
370
   -1
100
AcDbLine
 10
120.2469204244238
 20
12.24569426565104
 11
120.3559049989597
 21
12.83602731388708
  0
LINE
  5
330
100
AcDbEntity
  8
0
  6
ByLayer
 62
    7
370
   -1
100
AcDbLine
 10
120.3559049989597
 20
12.83602731388708
 11
120.4554566675845
 21
13.42825885629922
  0
LINE
  5
331
100
AcDbEntity
  8
0
  6
ByLayer
 62
    7
370
   -1
100
AcDbLine
 10
120.4554566675845
 20
13.42825885629922
 11
120.5457625740663
 21
14.02220526561747
  0
LINE
  5
332
100
AcDbEntity
  8
0
  6
ByLayer
 62
    7
370
   -1
100
AcDbLine
 10
120.5457625740663
 20
14.02220526561747
 11
120.6270098621735
 21
14.61768291457185
  0
LINE
  5
333
100
AcDbEntity
  8
0
  6
ByLayer
 62
    7
370
   -1
100
AcDbLine
 10
120.6270098621735
 20
14.61768291457185
 11
120.6993856756742
 21
15.21450817589238
  0
LINE
  5
334
100
AcDbEntity
  8
0
  6
ByLayer
 62
    7
370
   -1
100
AcDbLine
 10
120.6993856756742
 20
15.21450817589238
 11
120.7630771583367
 21
15.81249742230908
  0
LINE
  5
335
100
AcDbEntity
  8
0
  6
ByLayer
 62
    7
370
   -1
100
AcDbLine
 10
120.7630771583367
 20
15.81249742230908
 11
120.8182714539294
 21
16.41146702655197
  0
LINE
  5
336
100
AcDbEntity
  8
0
  6
ByLayer
 62
    7
370
   -1
100
AcDbLine
 10
120.8182714539294
 20
16.41146702655197
 11
120.8651557062203
 21
17.01123336135107
  0
LINE
  5
337
100
AcDbEntity
  8
0
  6
ByLayer
 62
    7
370
   -1
100
AcDbLine
 10
120.8651557062203
 20
17.01123336135107
 11
120.9039170589779
 21
17.6116127994364
  0
LINE
  5
338
100
AcDbEntity
  8
0
  6
ByLayer
 62
    7
370
   -1
100
AcDbLine
 10
120.9039170589779
 20
17.6116127994364
 11
120.9347426559703
 21
18.21242171353797
  0
LINE
  5
339
100
AcDbEntity
  8
0
  6
ByLayer
 62
    7
370
   -1
100
AcDbLine
 10
120.9347426559703
 20
18.21242171353797
 11
120.9578196409657
 21
18.81347647638582
  0
LINE
  5
33A
100
AcDbEntity
  8
0
  6
ByLayer
 62
    7
370
   -1
100
AcDbLine
 10
120.9578196409657
 20
18.81347647638582
 11
120.9733351577325
 21
19.41459346070994
  0
LINE
  5
33B
100
AcDbEntity
  8
0
  6
ByLayer
 62
    7
370
   -1
100
AcDbLine
 10
120.9733351577325
 20
19.41459346070994
 11
120.9814763500389
 21
20.01558903924037
  0
LINE
  5
33C
100
AcDbEntity
  8
0
  6
ByLayer
 62
    7
370
   -1
100
AcDbLine
 10
120.9814763500389
 20
20.01558903924037
 11
120.9824303616532
 21
20.61627958470712
  0
LINE
  5
33D
100
AcDbEntity
  8
0
  6
ByLayer
 62
    7
370
   -1
100
AcDbLine
 10
120.9824303616532
 20
20.61627958470712
 11
120.9763843363435
 21
21.21648146984021
  0
LINE
  5
33E
100
AcDbEntity
  8
0
  6
ByLayer
 62
    7
370
   -1
100
AcDbLine
 10
120.9763843363435
 20
21.21648146984021
 11
120.9635254178782
 21
21.81601106736966
  0
LINE
  5
33F
100
AcDbEntity
  8
0
  6
ByLayer
 62
    7
370
   -1
100
AcDbLine
 10
120.9635254178782
 20
21.81601106736966
 11
120.9440407500255
 21
22.41468475002551
  0
LINE
  5
340
100
AcDbEntity
  8
0
  6
ByLayer
 62
    7
370
   -1
100
AcDbLine
 10
120.9440407500255
 20
22.41468475002551
 11
120.9440407500255
 21
22.41468475002551
  0
LINE
  5
341
100
AcDbEntity
  8
0
  6
ByLayer
 62
    7
370
   -1
100
AcDbLine
 10
117.7523464298156
 20
34.53608002253829
 11
117.2863039937443
 21
34.72699922832192
  0
LINE
  5
342
100
AcDbEntity
  8
0
  6
ByLayer
 62
    7
370
   -1
100
AcDbLine
 10
117.2863039937443
 20
34.72699922832192
 11
116.8176950962921
 21
34.91062999034736
  0
LINE
  5
343
100
AcDbEntity
  8
0
  6
ByLayer
 62
    7
370
   -1
100
AcDbLine
 10
116.8176950962921
 20
34.91062999034736
 11
116.3466223052142
 21
35.08715891272324
  0
LINE
  5
344
100
AcDbEntity
  8
0
  6
ByLayer
 62
    7
370
   -1
100
AcDbLine
 10
116.3466223052142
 20
35.08715891272324
 11
115.8731881882661
 21
35.2567725995582
  0
LINE
  5
345
100
AcDbEntity
  8
0
  6
ByLayer
 62
    7
370
   -1
100
AcDbLine
 10
115.8731881882661
 20
35.2567725995582
 11
115.3974953132032
 21
35.41965765496083
  0
LINE
  5
346
100
AcDbEntity
  8
0
  6
ByLayer
 62
    7
370
   -1
100
AcDbLine
 10
115.3974953132032
 20
35.41965765496083
 11
114.9196462477808
 21
35.57600068303979
  0
LINE
  5
347
100
AcDbEntity
  8
0
  6
ByLayer
 62
    7
370
   -1
100
AcDbLine
 10
114.9196462477808
 20
35.57600068303979
 11
114.4397435597542
 21
35.72598828790367
  0
LINE
  5
348
100
AcDbEntity
  8
0
  6
ByLayer
 62
    7
370
   -1
100
AcDbLine
 10
114.4397435597542
 20
35.72598828790367
 11
113.9578898168788
 21
35.86980707366111
  0
LINE
  5
349
100
AcDbEntity
  8
0
  6
ByLayer
 62
    7
370
   -1
100
AcDbLine
 10
113.9578898168788
 20
35.86980707366111
 11
113.47418758691
 21
36.00764364442073
  0
LINE
  5
34A
100
AcDbEntity
  8
0
  6
ByLayer
 62
    7
370
   -1
100
AcDbLine
 10
113.47418758691
 20
36.00764364442073
 11
112.9887394376032
 21
36.13968460429115
  0
LINE
  5
34B
100
AcDbEntity
  8
0
  6
ByLayer
 62
    7
370
   -1
100
AcDbLine
 10
112.9887394376032
 20
36.13968460429115
 11
112.5016479367137
 21
36.26611655738103
  0
LINE
  5
34C
100
AcDbEntity
  8
0
  6
ByLayer
 62
    7
370
   -1
100
AcDbLine
 10
112.5016479367137
 20
36.26611655738103
 11
112.0130156519968
 21
36.38712610779893
  0
LINE
  5
34D
100
AcDbEntity
  8
0
  6
ByLayer
 62
    7
370
   -1
100
AcDbLine
 10
112.0130156519968
 20
36.38712610779893
 11
111.522945151208
 21
36.50289985965352
  0
LINE
  5
34E
100
AcDbEntity
  8
0
  6
ByLayer
 62
    7
370
   -1
100
AcDbLine
 10
111.522945151208
 20
36.50289985965352
 11
111.0315390021025
 21
36.61362441705341
  0
LINE
  5
34F
100
AcDbEntity
  8
0
  6
ByLayer
 62
    7
370
   -1
100
AcDbLine
 10
111.0315390021025
 20
36.61362441705341
 11
110.5388997724359
 21
36.71948638410721
  0
LINE
  5
350
100
AcDbEntity
  8
0
  6
ByLayer
 62
    7
370
   -1
100
AcDbLine
 10
110.5388997724359
 20
36.71948638410721
 11
110.0451300299633
 21
36.82067236492357
  0
LINE
  5
351
100
AcDbEntity
  8
0
  6
ByLayer
 62
    7
370
   -1
100
AcDbLine
 10
110.0451300299633
 20
36.82067236492357
 11
109.5503323424402
 21
36.91736896361109
  0
LINE
  5
352
100
AcDbEntity
  8
0
  6
ByLayer
 62
    7
370
   -1
100
AcDbLine
 10
109.5503323424402
 20
36.91736896361109
 11
109.054609277622
 21
37.00976278427841
  0
LINE
  5
353
100
AcDbEntity
  8
0
  6
ByLayer
 62
    7
370
   -1
100
AcDbLine
 10
109.054609277622
 20
37.00976278427841
 11
108.558063403264
 21
37.09804043103414
  0
LINE
  5
354
100
AcDbEntity
  8
0
  6
ByLayer
 62
    7
370
   -1
100
AcDbLine
 10
108.558063403264
 20
37.09804043103414
 11
108.0607972871215
 21
37.18238850798691
  0
LINE
  5
355
100
AcDbEntity
  8
0
  6
ByLayer
 62
    7
370
   -1
100
AcDbLine
 10
108.0607972871215
 20
37.18238850798691
 11
107.56291349695
 21
37.26299361924534
  0
LINE
  5
356
100
AcDbEntity
  8
0
  6
ByLayer
 62
    7
370
   -1
100
AcDbLine
 10
107.56291349695
 20
37.26299361924534
 11
107.0645146005047
 21
37.34004236891806
  0
LINE
  5
357
100
AcDbEntity
  8
0
  6
ByLayer
 62
    7
370
   -1
100
AcDbLine
 10
107.0645146005047
 20
37.34004236891806
 11
106.5657031655412
 21
37.41372136111369
  0
LINE
  5
358
100
AcDbEntity
  8
0
  6
ByLayer
 62
    7
370
   -1
100
AcDbLine
 10
106.5657031655412
 20
37.41372136111369
 11
106.0665817598146
 21
37.48421719994086
  0
LINE
  5
359
100
AcDbEntity
  8
0
  6
ByLayer
 62
    7
370
   -1
100
AcDbLine
 10
106.0665817598146
 20
37.48421719994086
 11
105.5672529510804
 21
37.55171648950817
  0
LINE
  5
35A
100
AcDbEntity
  8
0
  6
ByLayer
 62
    7
370
   -1
100
AcDbLine
 10
105.5672529510804
 20
37.55171648950817
 11
105.067819307094
 21
37.61640583392427
  0
LINE
  5
35B
100
AcDbEntity
  8
0
  6
ByLayer
 62
    7
370
   -1
100
AcDbLine
 10
105.067819307094
 20
37.61640583392427
 11
104.5683833956107
 21
37.67847183729778
  0
LINE
  5
35C
100
AcDbEntity
  8
0
  6
ByLayer
 62
    7
370
   -1
100
AcDbLine
 10
104.5683833956107
 20
37.67847183729778
 11
104.0690477843858
 21
37.73810110373731
  0
LINE
  5
35D
100
AcDbEntity
  8
0
  6
ByLayer
 62
    7
370
   -1
100
AcDbLine
 10
104.0690477843858
 20
37.73810110373731
 11
103.5699150411747
 21
37.79548023735148
  0
LINE
  5
35E
100
AcDbEntity
  8
0
  6
ByLayer
 62
    7
370
   -1
100
AcDbLine
 10
103.5699150411747
 20
37.79548023735148
 11
103.0710877337329
 21
37.85079584224894
  0
LINE
  5
35F
100
AcDbEntity
  8
0
  6
ByLayer
 62
    7
370
   -1
100
AcDbLine
 10
103.0710877337329
 20
37.85079584224894
 11
102.5726684298156
 21
37.90423452253829
  0
LINE
  5
360
100
AcDbEntity
  8
0
  6
ByLayer
 62
    7
370
   -1
100
AcDbLine
 10
102.5726684298156
 20
37.90423452253829
 11
101.6150234332395
 21
37.99075987826653
  0
LINE
  5
361
100
AcDbEntity
  8
0
  6
ByLayer
 62
    7
370
   -1
100
AcDbLine
 10
101.6150234332395
 20
37.99075987826653
 11
100.655622036811
 21
38.06564248282831
  0
LINE
  5
362
100
AcDbEntity
  8
0
  6
ByLayer
 62
    7
370
   -1
100
AcDbLine
 10
100.655622036811
 20
38.06564248282831
 11
99.69470963048023
 21
38.12870464228923
  0
LINE
  5
363
100
AcDbEntity
  8
0
  6
ByLayer
 62
    7
370
   -1
100
AcDbLine
 10
99.69470963048023
 20
38.12870464228923
 11
98.73253160419713
 21
38.17976866271485
  0
LINE
  5
364
100
AcDbEntity
  8
0
  6
ByLayer
 62
    7
370
   -1
100
AcDbLine
 10
98.73253160419713
 20
38.17976866271485
 11
97.76933334791167
 21
38.2186568501708
  0
LINE
  5
365
100
AcDbEntity
  8
0
  6
ByLayer
 62
    7
370
   -1
100
AcDbLine
 10
97.76933334791167
 20
38.2186568501708
 11
96.80536025157387
 21
38.24519151072264
  0
LINE
  5
366
100
AcDbEntity
  8
0
  6
ByLayer
 62
    7
370
   -1
100
AcDbLine
 10
96.80536025157387
 20
38.24519151072264
 11
95.84085770513364
 21
38.25919495043597
  0
LINE
  5
367
100
AcDbEntity
  8
0
  6
ByLayer
 62
    7
370
   -1
100
AcDbLine
 10
95.84085770513364
 20
38.25919495043597
 11
94.87607109854106
 21
38.2604894753764
  0
LINE
  5
368
100
AcDbEntity
  8
0
  6
ByLayer
 62
    7
370
   -1
100
AcDbLine
 10
94.87607109854106
 20
38.2604894753764
 11
93.91124582174605
 21
38.24889739160947
  0
LINE
  5
369
100
AcDbEntity
  8
0
  6
ByLayer
 62
    7
370
   -1
100
AcDbLine
 10
93.91124582174605
 20
38.24889739160947
 11
92.94662726469861
 21
38.22424100520083
  0
LINE
  5
36A
100
AcDbEntity
  8
0
  6
ByLayer
 62
    7
370
   -1
100
AcDbLine
 10
92.94662726469861
 20
38.22424100520083
 11
91.98246081734877
 21
38.18634262221604
  0
LINE
  5
36B
100
AcDbEntity
  8
0
  6
ByLayer
 62
    7
370
   -1
100
AcDbLine
 10
91.98246081734877
 20
38.18634262221604
 11
91.01899186964643
 21
38.13502454872069
  0
LINE
  5
36C
100
AcDbEntity
  8
0
  6
ByLayer
 62
    7
370
   -1
100
AcDbLine
 10
91.01899186964643
 20
38.13502454872069
 11
90.05646581154163
 21
38.07010909078037
  0
LINE
  5
36D
100
AcDbEntity
  8
0
  6
ByLayer
 62
    7
370
   -1
100
AcDbLine
 10
90.05646581154163
 20
38.07010909078037
 11
89.09512803298436
 21
37.99141855446069
  0
LINE
  5
36E
100
AcDbEntity
  8
0
  6
ByLayer
 62
    7
370
   -1
100
AcDbLine
 10
89.09512803298436
 20
37.99141855446069
 11
88.13522392392457
 21
37.8987752458272
  0
LINE
  5
36F
100
AcDbEntity
  8
0
  6
ByLayer
 62
    7
370
   -1
100
AcDbLine
 10
88.13522392392457
 20
37.8987752458272
 11
87.17699887431228
 21
37.79200147094552
  0
LINE
  5
370
100
AcDbEntity
  8
0
  6
ByLayer
 62
    7
370
   -1
100
AcDbLine
 10
87.17699887431228
 20
37.79200147094552
 11
86.22069827409744
 21
37.67091953588125
  0
LINE
  5
371
100
AcDbEntity
  8
0
  6
ByLayer
 62
    7
370
   -1
100
AcDbLine
 10
86.22069827409744
 20
37.67091953588125
 11
85.26656751323007
 21
37.53535174669994
  0
LINE
  5
372
100
AcDbEntity
  8
0
  6
ByLayer
 62
    7
370
   -1
100
AcDbLine
 10
85.26656751323007
 20
37.53535174669994
 11
84.31485198166013
 21
37.38512040946723
  0
LINE
  5
373
100
AcDbEntity
  8
0
  6
ByLayer
 62
    7
370
   -1
100
AcDbLine
 10
84.31485198166013
 20
37.38512040946723
 11
83.36579706933762
 21
37.22004783024867
  0
LINE
  5
374
100
AcDbEntity
  8
0
  6
ByLayer
 62
    7
370
   -1
100
AcDbLine
 10
83.36579706933762
 20
37.22004783024867
 11
82.41964816621251
 21
37.03995631510988
  0
LINE
  5
375
100
AcDbEntity
  8
0
  6
ByLayer
 62
    7
370
   -1
100
AcDbLine
 10
82.41964816621251
 20
37.03995631510988
 11
81.4766506622348
 21
36.84466817011642
  0
LINE
  5
376
100
AcDbEntity
  8
0
  6
ByLayer
 62
    7
370
   -1
100
AcDbLine
 10
81.4766506622348
 20
36.84466817011642
 11
80.53704994735446
 21
36.6340057013339
  0
LINE
  5
377
100
AcDbEntity
  8
0
  6
ByLayer
 62
    7
370
   -1
100
AcDbLine
 10
80.53704994735446
 20
36.6340057013339
 11
79.60109141152151
 21
36.40779121482791
  0
LINE
  5
378
100
AcDbEntity
  8
0
  6
ByLayer
 62
    7
370
   -1
100
AcDbLine
 10
79.60109141152151
 20
36.40779121482791
 11
78.66902044468588
 21
36.16584701666403
  0
LINE
  5
379
100
AcDbEntity
  8
0
  6
ByLayer
 62
    7
370
   -1
100
AcDbLine
 10
78.66902044468588
 20
36.16584701666403
 11
77.7410824367976
 21
35.90799541290787
  0
LINE
  5
37A
100
AcDbEntity
  8
0
  6
ByLayer
 62
    7
370
   -1
100
AcDbLine
 10
77.7410824367976
 20
35.90799541290787
 11
76.81752277780663
 21
35.63405870962499
  0
LINE
  5
37B
100
AcDbEntity
  8
0
  6
ByLayer
 62
    7
370
   -1
100
AcDbLine
 10
76.81752277780663
 20
35.63405870962499
 11
75.89858685766296
 21
35.34385921288101
  0
LINE
  5
37C
100
AcDbEntity
  8
0
  6
ByLayer
 62
    7
370
   -1
100
AcDbLine
 10
75.89858685766296
 20
35.34385921288101
 11
74.98452006631658
 21
35.03721922874151
  0
LINE
  5
37D
100
AcDbEntity
  8
0
  6
ByLayer
 62
    7
370
   -1
100
AcDbLine
 10
74.98452006631658
 20
35.03721922874151
 11
74.07556779371747
 21
34.71396106327207
  0
LINE
  5
37E
100
AcDbEntity
  8
0
  6
ByLayer
 62
    7
370
   -1
100
AcDbLine
 10
74.07556779371747
 20
34.71396106327207
 11
73.1719754298156
 21
34.37390702253829
  0
LINE
  5
37F
100
AcDbEntity
  8
0
  6
ByLayer
 62
    7
370
   -1
100
AcDbLine
 10
69.0248109298156
 20
6.807556022538293
 11
69.2632115144049
 21
6.281187650714588
  0
LINE
  5
380
100
AcDbEntity
  8
0
  6
ByLayer
 62
    7
370
   -1
100
AcDbLine
 10
69.2632115144049
 20
6.281187650714588
 11
69.51323875533339
 21
5.757568765950734
  0
LINE
  5
381
100
AcDbEntity
  8
0
  6
ByLayer
 62
    7
370
   -1
100
AcDbLine
 10
69.51323875533339
 20
5.757568765950734
 11
69.77486778656764
 21
5.237370311081814
  0
LINE
  5
382
100
AcDbEntity
  8
0
  6
ByLayer
 62
    7
370
   -1
100
AcDbLine
 10
69.77486778656764
 20
5.237370311081814
 11
70.04807374207434
 21
4.721263228942912
  0
LINE
  5
383
100
AcDbEntity
  8
0
  6
ByLayer
 62
    7
370
   -1
100
AcDbLine
 10
70.04807374207434
 20
4.721263228942912
 11
70.33283175582011
 21
4.209918462369114
  0
LINE
  5
384
100
AcDbEntity
  8
0
  6
ByLayer
 62
    7
370
   -1
100
AcDbLine
 10
70.33283175582011
 20
4.209918462369114
 11
70.62911696177156
 21
3.704006954195505
  0
LINE
  5
385
100
AcDbEntity
  8
0
  6
ByLayer
 62
    7
370
   -1
100
AcDbLine
 10
70.62911696177156
 20
3.704006954195505
 11
70.93690449389537
 21
3.204199647257168
  0
LINE
  5
386
100
AcDbEntity
  8
0
  6
ByLayer
 62
    7
370
   -1
100
AcDbLine
 10
70.93690449389537
 20
3.204199647257168
 11
71.25616948615813
 21
2.711167484389188
  0
LINE
  5
387
100
AcDbEntity
  8
0
  6
ByLayer
 62
    7
370
   -1
100
AcDbLine
 10
71.25616948615813
 20
2.711167484389188
 11
71.58688707252648
 21
2.225581408426649
  0
LINE
  5
388
100
AcDbEntity
  8
0
  6
ByLayer
 62
    7
370
   -1
100
AcDbLine
 10
71.58688707252648
 20
2.225581408426649
 11
71.92903238696707
 21
1.748112362204636
  0
LINE
  5
389
100
AcDbEntity
  8
0
  6
ByLayer
 62
    7
370
   -1
100
AcDbLine
 10
71.92903238696707
 20
1.748112362204636
 11
72.28258056344657
 21
1.279431288558234
  0
LINE
  5
38A
100
AcDbEntity
  8
0
  6
ByLayer
 62
    7
370
   -1
100
AcDbLine
 10
72.28258056344657
 20
1.279431288558234
 11
72.64750673593154
 21
0.8202091303225253
  0
LINE
  5
38B
100
AcDbEntity
  8
0
  6
ByLayer
 62
    7
370
   -1
100
AcDbLine
 10
72.64750673593154
 20
0.8202091303225253
 11
73.02378603838866
 21
0.3711168303325956
  0
LINE
  5
38C
100
AcDbEntity
  8
0
  6
ByLayer
 62
    7
370
   -1
100
AcDbLine
 10
73.02378603838866
 20
0.3711168303325956
 11
73.41139360478455
 21
-0.06717466857647048
  0
LINE
  5
38D
100
AcDbEntity
  8
0
  6
ByLayer
 62
    7
370
   -1
100
AcDbLine
 10
73.41139360478455
 20
-0.06717466857647048
 11
73.81030456908584
 21
-0.4939944235695891
  0
LINE
  5
38E
100
AcDbEntity
  8
0
  6
ByLayer
 62
    7
370
   -1
100
AcDbLine
 10
73.81030456908584
 20
-0.4939944235695891
 11
74.22049406525919
 21
-0.9086714918116753
  0
LINE
  5
38F
100
AcDbEntity
  8
0
  6
ByLayer
 62
    7
370
   -1
100
AcDbLine
 10
74.22049406525919
 20
-0.9086714918116753
 11
74.6419372272712
 21
-1.310534930467645
  0
LINE
  5
390
100
AcDbEntity
  8
0
  6
ByLayer
 62
    7
370
   -1
100
AcDbLine
 10
74.6419372272712
 20
-1.310534930467645
 11
75.07460918908853
 21
-1.698913796702413
  0
LINE
  5
391
100
AcDbEntity
  8
0
  6
ByLayer
 62
    7
370
   -1
100
AcDbLine
 10
75.07460918908853
 20
-1.698913796702413
 11
75.51848508467781
 21
-2.073137147680897
  0
LINE
  5
392
100
AcDbEntity
  8
0
  6
ByLayer
 62
    7
370
   -1
100
AcDbLine
 10
75.51848508467781
 20
-2.073137147680897
 11
75.97354004800565
 21
-2.43253404056801
  0
LINE
  5
393
100
AcDbEntity
  8
0
  6
ByLayer
 62
    7
370
   -1
100
AcDbLine
 10
75.97354004800565
 20
-2.43253404056801
 11
76.43974921303872
 21
-2.776433532528669
  0
LINE
  5
394
100
AcDbEntity
  8
0
  6
ByLayer
 62
    7
370
   -1
100
AcDbLine
 10
76.43974921303872
 20
-2.776433532528669
 11
76.91708771374364
 21
-3.104164680727789
  0
LINE
  5
395
100
AcDbEntity
  8
0
  6
ByLayer
 62
    7
370
   -1
100
AcDbLine
 10
76.91708771374364
 20
-3.104164680727789
 11
77.40553068408703
 21
-3.415056542330286
  0
LINE
  5
396
100
AcDbEntity
  8
0
  6
ByLayer
 62
    7
370
   -1
100
AcDbLine
 10
77.40553068408703
 20
-3.415056542330286
 11
77.90505325803554
 21
-3.708438174501075
  0
LINE
  5
397
100
AcDbEntity
  8
0
  6
ByLayer
 62
    7
370
   -1
100
AcDbLine
 10
77.90505325803554
 20
-3.708438174501075
 11
78.41563056955579
 21
-3.983638634405073
  0
LINE
  5
398
100
AcDbEntity
  8
0
  6
ByLayer
 62
    7
370
   -1
100
AcDbLine
 10
78.41563056955579
 20
-3.983638634405073
 11
78.93723775261442
 21
-4.239986979207194
  0
LINE
  5
399
100
AcDbEntity
  8
0
  6
ByLayer
 62
    7
370
   -1
100
AcDbLine
 10
78.93723775261442
 20
-4.239986979207194
 11
79.46984994117808
 21
-4.476812266072354
  0
LINE
  5
39A
100
AcDbEntity
  8
0
  6
ByLayer
 62
    7
370
   -1
100
AcDbLine
 10
79.46984994117808
 20
-4.476812266072354
 11
80.0134422692134
 21
-4.693443552165469
  0
LINE
  5
39B
100
AcDbEntity
  8
0
  6
ByLayer
 62
    7
370
   -1
100
AcDbLine
 10
80.0134422692134
 20
-4.693443552165469
 11
80.56798987068699
 21
-4.889209894651454
  0
LINE
  5
39C
100
AcDbEntity
  8
0
  6
ByLayer
 62
    7
370
   -1
100
AcDbLine
 10
80.56798987068699
 20
-4.889209894651454
 11
81.13346787956552
 21
-5.063440350695225
  0
LINE
  5
39D
100
AcDbEntity
  8
0
  6
ByLayer
 62
    7
370
   -1
100
AcDbLine
 10
81.13346787956552
 20
-5.063440350695225
 11
81.7098514298156
 21
-5.215463977461701
  0
LINE
  5
39E
100
AcDbEntity
  8
0
  6
ByLayer
 62
    7
370
   -1
100
AcDbLine
 10
81.7098514298156
 20
-5.215463977461701
 11
82.62479212272622
 21
-5.495042023482311
  0
LINE
  5
39F
100
AcDbEntity
  8
0
  6
ByLayer
 62
    7
370
   -1
100
AcDbLine
 10
82.62479212272622
 20
-5.495042023482311
 11
83.54514891378729
 21
-5.758931450725439
  0
LINE
  5
3A0
100
AcDbEntity
  8
0
  6
ByLayer
 62
    7
370
   -1
100
AcDbLine
 10
83.54514891378729
 20
-5.758931450725439
 11
84.47057356504099
 21
-6.006993483285608
  0
LINE
  5
3A1
100
AcDbEntity
  8
0
  6
ByLayer
 62
    7
370
   -1
100
AcDbLine
 10
84.47057356504099
 20
-6.006993483285608
 11
85.40071783852966
 21
-6.239089345257344
  0
LINE
  5
3A2
100
AcDbEntity
  8
0
  6
ByLayer
 62
    7
370
   -1
100
AcDbLine
 10
85.40071783852966
 20
-6.239089345257344
 11
86.3352334962954
 21
-6.455080260735173
  0
LINE
  5
3A3
100
AcDbEntity
  8
0
  6
ByLayer
 62
    7
370
   -1
100
AcDbLine
 10
86.3352334962954
 20
-6.455080260735173
 11
87.27377230038054
 21
-6.654827453813621
  0
LINE
  5
3A4
100
AcDbEntity
  8
0
  6
ByLayer
 62
    7
370
   -1
100
AcDbLine
 10
87.27377230038054
 20
-6.654827453813621
 11
88.21598601282724
 21
-6.838192148587209
  0
LINE
  5
3A5
100
AcDbEntity
  8
0
  6
ByLayer
 62
    7
370
   -1
100
AcDbLine
 10
88.21598601282724
 20
-6.838192148587209
 11
89.16152639567777
 21
-7.005035569150467
  0
LINE
  5
3A6
100
AcDbEntity
  8
0
  6
ByLayer
 62
    7
370
   -1
100
AcDbLine
 10
89.16152639567777
 20
-7.005035569150467
 11
90.11004521097433
 21
-7.155218939597916
  0
LINE
  5
3A7
100
AcDbEntity
  8
0
  6
ByLayer
 62
    7
370
   -1
100
AcDbLine
 10
90.11004521097433
 20
-7.155218939597916
 11
91.06119422075915
 21
-7.288603484024085
  0
LINE
  5
3A8
100
AcDbEntity
  8
0
  6
ByLayer
 62
    7
370
   -1
100
AcDbLine
 10
91.06119422075915
 20
-7.288603484024085
 11
92.0146251870745
 21
-7.405050426523498
  0
LINE
  5
3A9
100
AcDbEntity
  8
0
  6
ByLayer
 62
    7
370
   -1
100
AcDbLine
 10
92.0146251870745
 20
-7.405050426523498
 11
92.96998987196255
 21
-7.50442099119068
  0
LINE
  5
3AA
100
AcDbEntity
  8
0
  6
ByLayer
 62
    7
370
   -1
100
AcDbLine
 10
92.96998987196255
 20
-7.50442099119068
 11
93.92694003746556
 21
-7.586576402120156
  0
LINE
  5
3AB
100
AcDbEntity
  8
0
  6
ByLayer
 62
    7
370
   -1
100
AcDbLine
 10
93.92694003746556
 20
-7.586576402120156
 11
94.88512744562573
 21
-7.651377883406451
  0
LINE
  5
3AC
100
AcDbEntity
  8
0
  6
ByLayer
 62
    7
370
   -1
100
AcDbLine
 10
94.88512744562573
 20
-7.651377883406451
 11
95.84420385848534
 21
-7.69868665914409
  0
LINE
  5
3AD
100
AcDbEntity
  8
0
  6
ByLayer
 62
    7
370
   -1
100
AcDbLine
 10
95.84420385848534
 20
-7.69868665914409
 11
96.80382103808654
 21
-7.728363953427598
  0
LINE
  5
3AE
100
AcDbEntity
  8
0
  6
ByLayer
 62
    7
370
   -1
100
AcDbLine
 10
96.80382103808654
 20
-7.728363953427598
 11
97.76363074647162
 21
-7.740270990351501
  0
LINE
  5
3AF
100
AcDbEntity
  8
0
  6
ByLayer
 62
    7
370
   -1
100
AcDbLine
 10
97.76363074647162
 20
-7.740270990351501
 11
98.7232847456828
 21
-7.734268994010325
  0
LINE
  5
3B0
100
AcDbEntity
  8
0
  6
ByLayer
 62
    7
370
   -1
100
AcDbLine
 10
98.7232847456828
 20
-7.734268994010325
 11
99.6824347977623
 21
-7.710219188498594
  0
LINE
  5
3B1
100
AcDbEntity
  8
0
  6
ByLayer
 62
    7
370
   -1
100
AcDbLine
 10
99.6824347977623
 20
-7.710219188498594
 11
100.6407326647523
 21
-7.667982797910833
  0
LINE
  5
3B2
100
AcDbEntity
  8
0
  6
ByLayer
 62
    7
370
   -1
100
AcDbLine
 10
100.6407326647523
 20
-7.667982797910833
 11
101.5978301086951
 21
-7.607421046341567
  0
LINE
  5
3B3
100
AcDbEntity
  8
0
  6
ByLayer
 62
    7
370
   -1
100
AcDbLine
 10
101.5978301086951
 20
-7.607421046341567
 11
102.5533788916329
 21
-7.528395157885322
  0
LINE
  5
3B4
100
AcDbEntity
  8
0
  6
ByLayer
 62
    7
370
   -1
100
AcDbLine
 10
102.5533788916329
 20
-7.528395157885322
 11
103.5070307756079
 21
-7.430766356636623
  0
LINE
  5
3B5
100
AcDbEntity
  8
0
  6
ByLayer
 62
    7
370
   -1
100
AcDbLine
 10
103.5070307756079
 20
-7.430766356636623
 11
104.4584375226624
 21
-7.314395866689995
  0
LINE
  5
3B6
100
AcDbEntity
  8
0
  6
ByLayer
 62
    7
370
   -1
100
AcDbLine
 10
104.4584375226624
 20
-7.314395866689995
 11
105.4072508948386
 21
-7.179144912139963
  0
LINE
  5
3B7
100
AcDbEntity
  8
0
  6
ByLayer
 62
    7
370
   -1
100
AcDbLine
 10
105.4072508948386
 20
-7.179144912139963
 11
106.3531226541787
 21
-7.024874717081053
  0
LINE
  5
3B8
100
AcDbEntity
  8
0
  6
ByLayer
 62
    7
370
   -1
100
AcDbLine
 10
106.3531226541787
 20
-7.024874717081053
 11
107.2957045627249
 21
-6.85144650560779
  0
LINE
  5
3B9
100
AcDbEntity
  8
0
  6
ByLayer
 62
    7
370
   -1
100
AcDbLine
 10
107.2957045627249
 20
-6.85144650560779
 11
108.2346483825194
 21
-6.658721501814698
  0
LINE
  5
3BA
100
AcDbEntity
  8
0
  6
ByLayer
 62
    7
370
   -1
100
AcDbLine
 10
108.2346483825194
 20
-6.658721501814698
 11
109.1696058756046
 21
-6.446560929796304
  0
LINE
  5
3BB
100
AcDbEntity
  8
0
  6
ByLayer
 62
    7
370
   -1
100
AcDbLine
 10
109.1696058756046
 20
-6.446560929796304
 11
110.1002288040226
 21
-6.214826013647133
  0
LINE
  5
3BC
100
AcDbEntity
  8
0
  6
ByLayer
 62
    7
370
   -1
100
AcDbLine
 10
110.1002288040226
 20
-6.214826013647133
 11
111.0261689298156
 21
-5.963377977461702
  0
LINE
  5
3BD
100
AcDbEntity
  8
0
  6
ByLayer
 62
    7
370
   -1
100
AcDbLine
 10
111.0261689298156
 20
-5.963377977461702
 11
111.4492068381436
 21
-5.834065586857158
  0
LINE
  5
3BE
100
AcDbEntity
  8
0
  6
ByLayer
 62
    7
370
   -1
100
AcDbLine
 10
111.4492068381436
 20
-5.834065586857158
 11
111.8689033639736
 21
-5.693849614331898
  0
LINE
  5
3BF
100
AcDbEntity
  8
0
  6
ByLayer
 62
    7
370
   -1
100
AcDbLine
 10
111.8689033639736
 20
-5.693849614331898
 11
112.2849239021227
 21
-5.542833665270101
  0
LINE
  5
3C0
100
AcDbEntity
  8
0
  6
ByLayer
 62
    7
370
   -1
100
AcDbLine
 10
112.2849239021227
 20
-5.542833665270101
 11
112.6969338474082
 21
-5.381121345055942
  0
LINE
  5
3C1
100
AcDbEntity
  8
0
  6
ByLayer
 62
    7
370
   -1
100
AcDbLine
 10
112.6969338474082
 20
-5.381121345055942
 11
113.1045985946472
 21
-5.208816259073597
  0
LINE
  5
3C2
100
AcDbEntity
  8
0
  6
ByLayer
 62
    7
370
   -1
100
AcDbLine
 10
113.1045985946472
 20
-5.208816259073597
 11
113.5075835386572
 21
-5.026022012707245
  0
LINE
  5
3C3
100
AcDbEntity
  8
0
  6
ByLayer
 62
    7
370
   -1
100
AcDbLine
 10
113.5075835386572
 20
-5.026022012707245
 11
113.9055540742552
 21
-4.832842211341061
  0
LINE
  5
3C4
100
AcDbEntity
  8
0
  6
ByLayer
 62
    7
370
   -1
100
AcDbLine
 10
113.9055540742552
 20
-4.832842211341061
 11
114.2981755962585
 21
-4.62938046035922
  0
LINE
  5
3C5
100
AcDbEntity
  8
0
  6
ByLayer
 62
    7
370
   -1
100
AcDbLine
 10
114.2981755962585
 20
-4.62938046035922
 11
114.6851134994843
 21
-4.4157403651459
  0
LINE
  5
3C6
100
AcDbEntity
  8
0
  6
ByLayer
 62
    7
370
   -1
100
AcDbLine
 10
114.6851134994843
 20
-4.4157403651459
 11
115.0660331787498
 21
-4.192025531085277
  0
LINE
  5
3C7
100
AcDbEntity
  8
0
  6
ByLayer
 62
    7
370
   -1
100
AcDbLine
 10
115.0660331787498
 20
-4.192025531085277
 11
115.4406000288724
 21
-3.958339563561529
  0
LINE
  5
3C8
100
AcDbEntity
  8
0
  6
ByLayer
 62
    7
370
   -1
100
AcDbLine
 10
115.4406000288724
 20
-3.958339563561529
 11
115.8084794446691
 21
-3.714786067958831
  0
LINE
  5
3C9
100
AcDbEntity
  8
0
  6
ByLayer
 62
    7
370
   -1
100
AcDbLine
 10
115.8084794446691
 20
-3.714786067958831
 11
116.1693368209572
 21
-3.461468649661358
  0
LINE
  5
3CA
100
AcDbEntity
  8
0
  6
ByLayer
 62
    7
370
   -1
100
AcDbLine
 10
116.1693368209572
 20
-3.461468649661358
 11
116.522837552554
 21
-3.198490914053288
  0
LINE
  5
3CB
100
AcDbEntity
  8
0
  6
ByLayer
 62
    7
370
   -1
100
AcDbLine
 10
116.522837552554
 20
-3.198490914053288
 11
116.8686470342767
 21
-2.925956466518798
  0
LINE
  5
3CC
100
AcDbEntity
  8
0
  6
ByLayer
 62
    7
370
   -1
100
AcDbLine
 10
116.8686470342767
 20
-2.925956466518798
 11
117.2064306609424
 21
-2.643968912442064
  0
LINE
  5
3CD
100
AcDbEntity
  8
0
  6
ByLayer
 62
    7
370
   -1
100
AcDbLine
 10
117.2064306609424
 20
-2.643968912442064
 11
117.5358538273686
 21
-2.352631857207262
  0
LINE
  5
3CE
100
AcDbEntity
  8
0
  6
ByLayer
 62
    7
370
   -1
100
AcDbLine
 10
117.5358538273686
 20
-2.352631857207262
 11
117.8565819283722
 21
-2.052048906198568
  0
LINE
  5
3CF
100
AcDbEntity
  8
0
  6
ByLayer
 62
    7
370
   -1
100
AcDbLine
 10
117.8565819283722
 20
-2.052048906198568
 11
118.1682803587707
 21
-1.742323664800159
  0
LINE
  5
3D0
100
AcDbEntity
  8
0
  6
ByLayer
 62
    7
370
   -1
100
AcDbLine
 10
118.1682803587707
 20
-1.742323664800159
 11
118.4706145133811
 21
-1.423559738396212
  0
LINE
  5
3D1
100
AcDbEntity
  8
0
  6
ByLayer
 62
    7
370
   -1
100
AcDbLine
 10
118.4706145133811
 20
-1.423559738396212
 11
118.7632497870208
 21
-1.095860732370903
  0
LINE
  5
3D2
100
AcDbEntity
  8
0
  6
ByLayer
 62
    7
370
   -1
100
AcDbLine
 10
118.7632497870208
 20
-1.095860732370903
 11
119.0458515745069
 21
-0.7593302521084081
  0
LINE
  5
3D3
100
AcDbEntity
  8
0
  6
ByLayer
 62
    7
370
   -1
100
AcDbLine
 10
119.0458515745069
 20
-0.7593302521084081
 11
119.3180852706568
 21
-0.4140719029929036
  0
LINE
  5
3D4
100
AcDbEntity
  8
0
  6
ByLayer
 62
    7
370
   -1
100
AcDbLine
 10
119.3180852706568
 20
-0.4140719029929036
 11
119.5796162702875
 21
-0.06018929040856658
  0
LINE
  5
3D5
100
AcDbEntity
  8
0
  6
ByLayer
 62
    7
370
   -1
100
AcDbLine
 10
119.5796162702875
 20
-0.06018929040856658
 11
119.8301099682164
 21
0.3022139802604265
  0
LINE
  5
3D6
100
AcDbEntity
  8
0
  6
ByLayer
 62
    7
370
   -1
100
AcDbLine
 10
119.8301099682164
 20
0.3022139802604265
 11
120.0692317592607
 21
0.6730343036298995
  0
LINE
  5
3D7
100
AcDbEntity
  8
0
  6
ByLayer
 62
    7
370
   -1
100
AcDbLine
 10
120.0692317592607
 20
0.6730343036298995
 11
120.2966470382376
 21
1.052168074315676
  0
LINE
  5
3D8
100
AcDbEntity
  8
0
  6
ByLayer
 62
    7
370
   -1
100
AcDbLine
 10
120.2966470382376
 20
1.052168074315676
 11
120.5120211999643
 21
1.43951168693358
  0
LINE
  5
3D9
100
AcDbEntity
  8
0
  6
ByLayer
 62
    7
370
   -1
100
AcDbLine
 10
120.5120211999643
 20
1.43951168693358
 11
120.715019639258
 21
1.834961536099434
  0
LINE
  5
3DA
100
AcDbEntity
  8
0
  6
ByLayer
 62
    7
370
   -1
100
AcDbLine
 10
120.715019639258
 20
1.834961536099434
 11
120.9053077509361
 21
2.238414016429063
  0
LINE
  5
3DB
100
AcDbEntity
  8
0
  6
ByLayer
 62
    7
370
   -1
100
AcDbLine
 10
120.9053077509361
 20
2.238414016429063
 11
121.0825509298156
 21
2.649765522538297
  0
LINE
  5
3DC
100
AcDbEntity
  8
0
  6
ByLayer
 62
    7
370
   -1
100
AcDbLine
 10
69.72895598180692
 20
15.09073820039643
 11
69.90453375261018
 21
14.52593574025747
  0
LINE
  5
3DD
100
AcDbEntity
  8
0
  6
ByLayer
 62
    7
370
   -1
100
AcDbLine
 10
70.87156375328152
 20
11.7296153297308
 11
71.07830874371487
 21
11.17613465268069
  0
LINE
  5
3DE
100
AcDbEntity
  8
larger
  6
ByLayer
 62
    7
370
   -1
100
AcDbLine
 10
0.1718350702354172
 20
34.53608002253829
 11
0.637877506306714
 21
34.72699922832192
  0
LINE
  5
3DF
100
AcDbEntity
  8
larger
  6
ByLayer
 62
    7
370
   -1
100
AcDbLine
 10
0.637877506306714
 20
34.72699922832192
 11
1.106486403758965
 21
34.91062999034736
  0
LINE
  5
3E0
100
AcDbEntity
  8
larger
  6
ByLayer
 62
    7
370
   -1
100
AcDbLine
 10
1.106486403758965
 20
34.91062999034736
 11
1.577559194836807
 21
35.08715891272324
  0
LINE
  5
3E1
100
AcDbEntity
  8
larger
  6
ByLayer
 62
    7
370
   -1
100
AcDbLine
 10
1.577559194836807
 20
35.08715891272324
 11
2.050993311784879
 21
35.2567725995582
  0
LINE
  5
3E2
100
AcDbEntity
  8
larger
  6
ByLayer
 62
    7
370
   -1
100
AcDbLine
 10
2.050993311784879
 20
35.2567725995582
 11
2.526686186847817
 21
35.41965765496083
  0
LINE
  5
3E3
100
AcDbEntity
  8
larger
  6
ByLayer
 62
    7
370
   -1
100
AcDbLine
 10
2.526686186847817
 20
35.41965765496083
 11
3.004535252270261
 21
35.57600068303979
  0
LINE
  5
3E4
100
AcDbEntity
  8
larger
  6
ByLayer
 62
    7
370
   -1
100
AcDbLine
 10
3.004535252270261
 20
35.57600068303979
 11
3.484437940296846
 21
35.72598828790367
  0
LINE
  5
3E5
100
AcDbEntity
  8
larger
  6
ByLayer
 62
    7
370
   -1
100
AcDbLine
 10
3.484437940296846
 20
35.72598828790367
 11
3.966291683172211
 21
35.86980707366111
  0
LINE
  5
3E6
100
AcDbEntity
  8
larger
  6
ByLayer
 62
    7
370
   -1
100
AcDbLine
 10
3.966291683172211
 20
35.86980707366111
 11
4.449993913140992
 21
36.00764364442073
  0
LINE
  5
3E7
100
AcDbEntity
  8
larger
  6
ByLayer
 62
    7
370
   -1
100
AcDbLine
 10
4.449993913140992
 20
36.00764364442073
 11
4.93544206244783
 21
36.13968460429116
  0
LINE
  5
3E8
100
AcDbEntity
  8
larger
  6
ByLayer
 62
    7
370
   -1
100
AcDbLine
 10
4.93544206244783
 20
36.13968460429116
 11
5.42253356333736
 21
36.26611655738103
  0
LINE
  5
3E9
100
AcDbEntity
  8
larger
  6
ByLayer
 62
    7
370
   -1
100
AcDbLine
 10
5.42253356333736
 20
36.26611655738103
 11
5.911165848054221
 21
36.38712610779893
  0
LINE
  5
3EA
100
AcDbEntity
  8
larger
  6
ByLayer
 62
    7
370
   -1
100
AcDbLine
 10
5.911165848054221
 20
36.38712610779893
 11
6.401236348843049
 21
36.50289985965352
  0
LINE
  5
3EB
100
AcDbEntity
  8
larger
  6
ByLayer
 62
    7
370
   -1
100
AcDbLine
 10
6.401236348843049
 20
36.50289985965352
 11
6.892642497948485
 21
36.61362441705342
  0
LINE
  5
3EC
100
AcDbEntity
  8
larger
  6
ByLayer
 62
    7
370
   -1
100
AcDbLine
 10
6.892642497948485
 20
36.61362441705342
 11
7.385281727615163
 21
36.71948638410722
  0
LINE
  5
3ED
100
AcDbEntity
  8
larger
  6
ByLayer
 62
    7
370
   -1
100
AcDbLine
 10
7.385281727615163
 20
36.71948638410722
 11
7.879051470087719
 21
36.82067236492357
  0
LINE
  5
3EE
100
AcDbEntity
  8
larger
  6
ByLayer
 62
    7
370
   -1
100
AcDbLine
 10
7.879051470087719
 20
36.82067236492357
 11
8.373849157610797
 21
36.9173689636111
  0
LINE
  5
3EF
100
AcDbEntity
  8
larger
  6
ByLayer
 62
    7
370
   -1
100
AcDbLine
 10
8.373849157610797
 20
36.9173689636111
 11
8.869572222429031
 21
37.00976278427841
  0
LINE
  5
3F0
100
AcDbEntity
  8
larger
  6
ByLayer
 62
    7
370
   -1
100
AcDbLine
 10
8.869572222429031
 20
37.00976278427841
 11
9.366118096787059
 21
37.09804043103414
  0
LINE
  5
3F1
100
AcDbEntity
  8
larger
  6
ByLayer
 62
    7
370
   -1
100
AcDbLine
 10
9.366118096787059
 20
37.09804043103414
 11
9.863384212929516
 21
37.18238850798691
  0
LINE
  5
3F2
100
AcDbEntity
  8
larger
  6
ByLayer
 62
    7
370
   -1
100
AcDbLine
 10
9.863384212929516
 20
37.18238850798691
 11
10.36126800310105
 21
37.26299361924535
  0
LINE
  5
3F3
100
AcDbEntity
  8
larger
  6
ByLayer
 62
    7
370
   -1
100
AcDbLine
 10
10.36126800310105
 20
37.26299361924535
 11
10.85966689954628
 21
37.34004236891807
  0
LINE
  5
3F4
100
AcDbEntity
  8
larger
  6
ByLayer
 62
    7
370
   -1
100
AcDbLine
 10
10.85966689954628
 20
37.34004236891807
 11
11.35847833450986
 21
37.4137213611137
  0
LINE
  5
3F5
100
AcDbEntity
  8
larger
  6
ByLayer
 62
    7
370
   -1
100
AcDbLine
 10
11.35847833450986
 20
37.4137213611137
 11
11.85759974023642
 21
37.48421719994086
  0
LINE
  5
3F6
100
AcDbEntity
  8
larger
  6
ByLayer
 62
    7
370
   -1
100
AcDbLine
 10
11.85759974023642
 20
37.48421719994086
 11
12.3569285489706
 21
37.55171648950818
  0
LINE
  5
3F7
100
AcDbEntity
  8
larger
  6
ByLayer
 62
    7
370
   -1
100
AcDbLine
 10
12.3569285489706
 20
37.55171648950818
 11
12.85636219295704
 21
37.61640583392428
  0
LINE
  5
3F8
100
AcDbEntity
  8
larger
  6
ByLayer
 62
    7
370
   -1
100
AcDbLine
 10
12.85636219295704
 20
37.61640583392428
 11
13.35579810444037
 21
37.67847183729778
  0
LINE
  5
3F9
100
AcDbEntity
  8
larger
  6
ByLayer
 62
    7
370
   -1
100
AcDbLine
 10
13.35579810444037
 20
37.67847183729778
 11
13.85513371566524
 21
37.73810110373731
  0
LINE
  5
3FA
100
AcDbEntity
  8
larger
  6
ByLayer
 62
    7
370
   -1
100
AcDbLine
 10
13.85513371566524
 20
37.73810110373731
 11
14.35426645887627
 21
37.79548023735148
  0
LINE
  5
3FB
100
AcDbEntity
  8
larger
  6
ByLayer
 62
    7
370
   -1
100
AcDbLine
 10
14.35426645887627
 20
37.79548023735148
 11
14.85309376631812
 21
37.85079584224894
  0
LINE
  5
3FC
100
AcDbEntity
  8
larger
  6
ByLayer
 62
    7
370
   -1
100
AcDbLine
 10
14.85309376631812
 20
37.85079584224894
 11
15.35151307023542
 21
37.90423452253829
  0
LINE
  5
3FD
100
AcDbEntity
  8
larger
  6
ByLayer
 62
    7
370
   -1
100
AcDbLine
 10
15.35151307023542
 20
37.90423452253829
 11
16.30915806681156
 21
37.99075987826653
  0
LINE
  5
3FE
100
AcDbEntity
  8
larger
  6
ByLayer
 62
    7
370
   -1
100
AcDbLine
 10
16.30915806681156
 20
37.99075987826653
 11
17.26855946324002
 21
38.06564248282831
  0
LINE
  5
3FF
100
AcDbEntity
  8
larger
  6
ByLayer
 62
    7
370
   -1
100
AcDbLine
 10
17.26855946324002
 20
38.06564248282831
 11
18.22947186957079
 21
38.12870464228923
  0
LINE
  5
400
100
AcDbEntity
  8
larger
  6
ByLayer
 62
    7
370
   -1
100
AcDbLine
 10
18.22947186957079
 20
38.12870464228923
 11
19.1916498958539
 21
38.17976866271485
  0
LINE
  5
401
100
AcDbEntity
  8
larger
  6
ByLayer
 62
    7
370
   -1
100
AcDbLine
 10
19.1916498958539
 20
38.17976866271485
 11
20.15484815213935
 21
38.2186568501708
  0
LINE
  5
402
100
AcDbEntity
  8
larger
  6
ByLayer
 62
    7
370
   -1
100
AcDbLine
 10
20.15484815213935
 20
38.2186568501708
 11
21.11882124847717
 21
38.24519151072264
  0
LINE
  5
403
100
AcDbEntity
  8
larger
  6
ByLayer
 62
    7
370
   -1
100
AcDbLine
 10
21.11882124847717
 20
38.24519151072264
 11
22.08332379491737
 21
38.25919495043597
  0
LINE
  5
404
100
AcDbEntity
  8
larger
  6
ByLayer
 62
    7
370
   -1
100
AcDbLine
 10
22.08332379491737
 20
38.25919495043597
 11
23.04811040150997
 21
38.2604894753764
  0
LINE
  5
405
100
AcDbEntity
  8
larger
  6
ByLayer
 62
    7
370
   -1
100
AcDbLine
 10
23.04811040150997
 20
38.2604894753764
 11
24.01293567830496
 21
38.24889739160947
  0
LINE
  5
406
100
AcDbEntity
  8
larger
  6
ByLayer
 62
    7
370
   -1
100
AcDbLine
 10
24.01293567830496
 20
38.24889739160947
 11
24.9775542353524
 21
38.22424100520083
  0
LINE
  5
407
100
AcDbEntity
  8
larger
  6
ByLayer
 62
    7
370
   -1
100
AcDbLine
 10
24.9775542353524
 20
38.22424100520083
 11
25.94172068270227
 21
38.18634262221604
  0
LINE
  5
408
100
AcDbEntity
  8
larger
  6
ByLayer
 62
    7
370
   -1
100
AcDbLine
 10
25.94172068270227
 20
38.18634262221604
 11
26.90518963040459
 21
38.13502454872069
  0
LINE
  5
409
100
AcDbEntity
  8
larger
  6
ByLayer
 62
    7
370
   -1
100
AcDbLine
 10
26.90518963040459
 20
38.13502454872069
 11
27.86771568850939
 21
38.07010909078037
  0
LINE
  5
40A
100
AcDbEntity
  8
larger
  6
ByLayer
 62
    7
370
   -1
100
AcDbLine
 10
27.86771568850939
 20
38.07010909078037
 11
28.82905346706667
 21
37.99141855446069
  0
LINE
  5
40B
100
AcDbEntity
  8
larger
  6
ByLayer
 62
    7
370
   -1
100
AcDbLine
 10
28.82905346706667
 20
37.99141855446069
 11
29.78895757612645
 21
37.8987752458272
  0
LINE
  5
40C
100
AcDbEntity
  8
larger
  6
ByLayer
 62
    7
370
   -1
100
AcDbLine
 10
29.78895757612645
 20
37.8987752458272
 11
30.74718262573875
 21
37.79200147094552
  0
LINE
  5
40D
100
AcDbEntity
  8
larger
  6
ByLayer
 62
    7
370
   -1
100
AcDbLine
 10
30.74718262573875
 20
37.79200147094552
 11
31.70348322595358
 21
37.67091953588125
  0
LINE
  5
40E
100
AcDbEntity
  8
larger
  6
ByLayer
 62
    7
370
   -1
100
AcDbLine
 10
31.70348322595358
 20
37.67091953588125
 11
32.65761398682096
 21
37.53535174669994
  0
LINE
  5
40F
100
AcDbEntity
  8
larger
  6
ByLayer
 62
    7
370
   -1
100
AcDbLine
 10
32.65761398682096
 20
37.53535174669994
 11
33.60932951839089
 21
37.38512040946723
  0
LINE
  5
410
100
AcDbEntity
  8
larger
  6
ByLayer
 62
    7
370
   -1
100
AcDbLine
 10
33.60932951839089
 20
37.38512040946723
 11
34.5583844307134
 21
37.22004783024867
  0
LINE
  5
411
100
AcDbEntity
  8
larger
  6
ByLayer
 62
    7
370
   -1
100
AcDbLine
 10
34.5583844307134
 20
37.22004783024867
 11
35.50453333383851
 21
37.03995631510988
  0
LINE
  5
412
100
AcDbEntity
  8
larger
  6
ByLayer
 62
    7
370
   -1
100
AcDbLine
 10
35.50453333383851
 20
37.03995631510988
 11
36.44753083781622
 21
36.84466817011642
  0
LINE
  5
413
100
AcDbEntity
  8
larger
  6
ByLayer
 62
    7
370
   -1
100
AcDbLine
 10
36.44753083781622
 20
36.84466817011642
 11
37.38713155269655
 21
36.6340057013339
  0
LINE
  5
414
100
AcDbEntity
  8
larger
  6
ByLayer
 62
    7
370
   -1
100
AcDbLine
 10
37.38713155269655
 20
36.6340057013339
 11
38.32309008852952
 21
36.40779121482791
  0
LINE
  5
415
100
AcDbEntity
  8
larger
  6
ByLayer
 62
    7
370
   -1
100
AcDbLine
 10
38.32309008852952
 20
36.40779121482791
 11
39.25516105536514
 21
36.16584701666403
  0
LINE
  5
416
100
AcDbEntity
  8
larger
  6
ByLayer
 62
    7
370
   -1
100
AcDbLine
 10
39.25516105536514
 20
36.16584701666403
 11
40.18309906325342
 21
35.90799541290787
  0
LINE
  5
417
100
AcDbEntity
  8
larger
  6
ByLayer
 62
    7
370
   -1
100
AcDbLine
 10
40.18309906325342
 20
35.90799541290787
 11
41.1066587222444
 21
35.63405870962499
  0
LINE
  5
418
100
AcDbEntity
  8
larger
  6
ByLayer
 62
    7
370
   -1
100
AcDbLine
 10
41.1066587222444
 20
35.63405870962499
 11
42.02559464238807
 21
35.34385921288101
  0
LINE
  5
419
100
AcDbEntity
  8
larger
  6
ByLayer
 62
    7
370
   -1
100
AcDbLine
 10
42.02559464238807
 20
35.34385921288101
 11
42.93966143373444
 21
35.03721922874151
  0
LINE
  5
41A
100
AcDbEntity
  8
larger
  6
ByLayer
 62
    7
370
   -1
100
AcDbLine
 10
42.93966143373444
 20
35.03721922874151
 11
43.84861370633354
 21
34.71396106327207
  0
LINE
  5
41B
100
AcDbEntity
  8
larger
  6
ByLayer
 62
    7
370
   -1
100
AcDbLine
 10
43.84861370633354
 20
34.71396106327207
 11
44.75220607023542
 21
34.37390702253829
  0
LINE
  5
41C
100
AcDbEntity
  8
larger
  6
ByLayer
 62
    7
370
   -1
100
AcDbLine
 10
48.89937057023541
 20
6.807556022538293
 11
48.6609699856461
 21
6.281187650714588
  0
LINE
  5
41D
100
AcDbEntity
  8
larger
  6
ByLayer
 62
    7
370
   -1
100
AcDbLine
 10
48.6609699856461
 20
6.281187650714588
 11
48.41094274471764
 21
5.757568765950734
  0
LINE
  5
41E
100
AcDbEntity
  8
larger
  6
ByLayer
 62
    7
370
   -1
100
AcDbLine
 10
48.41094274471764
 20
5.757568765950734
 11
48.14931371348338
 21
5.237370311081814
  0
LINE
  5
41F
100
AcDbEntity
  8
larger
  6
ByLayer
 62
    7
370
   -1
100
AcDbLine
 10
48.14931371348338
 20
5.237370311081814
 11
47.87610775797667
 21
4.721263228942912
  0
LINE
  5
420
100
AcDbEntity
  8
larger
  6
ByLayer
 62
    7
370
   -1
100
AcDbLine
 10
47.87610775797667
 20
4.721263228942912
 11
47.59134974423091
 21
4.209918462369115
  0
LINE
  5
421
100
AcDbEntity
  8
larger
  6
ByLayer
 62
    7
370
   -1
100
AcDbLine
 10
47.59134974423091
 20
4.209918462369115
 11
47.29506453827945
 21
3.704006954195505
  0
LINE
  5
422
100
AcDbEntity
  8
larger
  6
ByLayer
 62
    7
370
   -1
100
AcDbLine
 10
47.29506453827945
 20
3.704006954195505
 11
46.98727700615565
 21
3.204199647257169
  0
LINE
  5
423
100
AcDbEntity
  8
larger
  6
ByLayer
 62
    7
370
   -1
100
AcDbLine
 10
46.98727700615565
 20
3.204199647257169
 11
46.6680120138929
 21
2.711167484389189
  0
LINE
  5
424
100
AcDbEntity
  8
larger
  6
ByLayer
 62
    7
370
   -1
100
AcDbLine
 10
46.6680120138929
 20
2.711167484389189
 11
46.33729442752452
 21
2.225581408426649
  0
LINE
  5
425
100
AcDbEntity
  8
larger
  6
ByLayer
 62
    7
370
   -1
100
AcDbLine
 10
46.33729442752452
 20
2.225581408426649
 11
45.99514911308392
 21
1.748112362204637
  0
LINE
  5
426
100
AcDbEntity
  8
larger
  6
ByLayer
 62
    7
370
   -1
100
AcDbLine
 10
45.99514911308392
 20
1.748112362204637
 11
45.64160093660445
 21
1.279431288558234
  0
LINE
  5
427
100
AcDbEntity
  8
larger
  6
ByLayer
 62
    7
370
   -1
100
AcDbLine
 10
45.64160093660445
 20
1.279431288558234
 11
45.27667476411948
 21
0.820209130322526
  0
LINE
  5
428
100
AcDbEntity
  8
larger
  6
ByLayer
 62
    7
370
   -1
100
AcDbLine
 10
45.27667476411948
 20
0.820209130322526
 11
44.90039546166236
 21
0.3711168303325965
  0
LINE
  5
429
100
AcDbEntity
  8
larger
  6
ByLayer
 62
    7
370
   -1
100
AcDbLine
 10
44.90039546166236
 20
0.3711168303325965
 11
44.51278789526646
 21
-0.0671746685764697
  0
LINE
  5
42A
100
AcDbEntity
  8
larger
  6
ByLayer
 62
    7
370
   -1
100
AcDbLine
 10
44.51278789526646
 20
-0.0671746685764697
 11
44.11387693096517
 21
-0.4939944235695882
  0
LINE
  5
42B
100
AcDbEntity
  8
larger
  6
ByLayer
 62
    7
370
   -1
100
AcDbLine
 10
44.11387693096517
 20
-0.4939944235695882
 11
43.70368743479182
 21
-0.9086714918116742
  0
LINE
  5
42C
100
AcDbEntity
  8
larger
  6
ByLayer
 62
    7
370
   -1
100
AcDbLine
 10
43.70368743479182
 20
-0.9086714918116742
 11
43.28224427277981
 21
-1.310534930467644
  0
LINE
  5
42D
100
AcDbEntity
  8
larger
  6
ByLayer
 62
    7
370
   -1
100
AcDbLine
 10
43.28224427277981
 20
-1.310534930467644
 11
42.84957231096249
 21
-1.698913796702413
  0
LINE
  5
42E
100
AcDbEntity
  8
larger
  6
ByLayer
 62
    7
370
   -1
100
AcDbLine
 10
42.84957231096249
 20
-1.698913796702413
 11
42.40569641537321
 21
-2.073137147680896
  0
LINE
  5
42F
100
AcDbEntity
  8
larger
  6
ByLayer
 62
    7
370
   -1
100
AcDbLine
 10
42.40569641537321
 20
-2.073137147680896
 11
41.95064145204536
 21
-2.432534040568009
  0
LINE
  5
430
100
AcDbEntity
  8
larger
  6
ByLayer
 62
    7
370
   -1
100
AcDbLine
 10
41.95064145204536
 20
-2.432534040568009
 11
41.4844322870123
 21
-2.776433532528668
  0
LINE
  5
431
100
AcDbEntity
  8
larger
  6
ByLayer
 62
    7
370
   -1
100
AcDbLine
 10
41.4844322870123
 20
-2.776433532528668
 11
41.00709378630739
 21
-3.104164680727789
  0
LINE
  5
432
100
AcDbEntity
  8
larger
  6
ByLayer
 62
    7
370
   -1
100
AcDbLine
 10
41.00709378630739
 20
-3.104164680727789
 11
40.51865081596399
 21
-3.415056542330286
  0
LINE
  5
433
100
AcDbEntity
  8
larger
  6
ByLayer
 62
    7
370
   -1
100
AcDbLine
 10
40.51865081596399
 20
-3.415056542330286
 11
40.01912824201549
 21
-3.708438174501075
  0
LINE
  5
434
100
AcDbEntity
  8
larger
  6
ByLayer
 62
    7
370
   -1
100
AcDbLine
 10
40.01912824201549
 20
-3.708438174501075
 11
39.50855093049523
 21
-3.983638634405073
  0
LINE
  5
435
100
AcDbEntity
  8
larger
  6
ByLayer
 62
    7
370
   -1
100
AcDbLine
 10
39.50855093049523
 20
-3.983638634405073
 11
38.9869437474366
 21
-4.239986979207194
  0
LINE
  5
436
100
AcDbEntity
  8
larger
  6
ByLayer
 62
    7
370
   -1
100
AcDbLine
 10
38.9869437474366
 20
-4.239986979207194
 11
38.45433155887294
 21
-4.476812266072356
  0
LINE
  5
437
100
AcDbEntity
  8
larger
  6
ByLayer
 62
    7
370
   -1
100
AcDbLine
 10
38.45433155887294
 20
-4.476812266072356
 11
37.91073923083762
 21
-4.693443552165471
  0
LINE
  5
438
100
AcDbEntity
  8
larger
  6
ByLayer
 62
    7
370
   -1
100
AcDbLine
 10
37.91073923083762
 20
-4.693443552165471
 11
37.35619162936403
 21
-4.889209894651456
  0
LINE
  5
439
100
AcDbEntity
  8
larger
  6
ByLayer
 62
    7
370
   -1
100
AcDbLine
 10
37.35619162936403
 20
-4.889209894651456
 11
36.7907136204855
 21
-5.063440350695228
  0
LINE
  5
43A
100
AcDbEntity
  8
larger
  6
ByLayer
 62
    7
370
   -1
100
AcDbLine
 10
36.7907136204855
 20
-5.063440350695228
 11
36.21433007023542
 21
-5.215463977461704
  0
LINE
  5
43B
100
AcDbEntity
  8
larger
  6
ByLayer
 62
    7
370
   -1
100
AcDbLine
 10
36.21433007023542
 20
-5.215463977461704
 11
35.29938937732481
 21
-5.495042023482315
  0
LINE
  5
43C
100
AcDbEntity
  8
larger
  6
ByLayer
 62
    7
370
   -1
100
AcDbLine
 10
35.29938937732481
 20
-5.495042023482315
 11
34.37903258626376
 21
-5.758931450725442
  0
LINE
  5
43D
100
AcDbEntity
  8
larger
  6
ByLayer
 62
    7
370
   -1
100
AcDbLine
 10
34.37903258626376
 20
-5.758931450725442
 11
33.45360793501002
 21
-6.006993483285611
  0
LINE
  5
43E
100
AcDbEntity
  8
larger
  6
ByLayer
 62
    7
370
   -1
100
AcDbLine
 10
33.45360793501002
 20
-6.006993483285611
 11
32.52346366152138
 21
-6.239089345257348
  0
LINE
  5
43F
100
AcDbEntity
  8
larger
  6
ByLayer
 62
    7
370
   -1
100
AcDbLine
 10
32.52346366152138
 20
-6.239089345257348
 11
31.58894800375561
 21
-6.455080260735176
  0
LINE
  5
440
100
AcDbEntity
  8
larger
  6
ByLayer
 62
    7
370
   -1
100
AcDbLine
 10
31.58894800375561
 20
-6.455080260735176
 11
30.65040919967048
 21
-6.654827453813624
  0
LINE
  5
441
100
AcDbEntity
  8
larger
  6
ByLayer
 62
    7
370
   -1
100
AcDbLine
 10
30.65040919967048
 20
-6.654827453813624
 11
29.70819548722377
 21
-6.838192148587212
  0
LINE
  5
442
100
AcDbEntity
  8
larger
  6
ByLayer
 62
    7
370
   -1
100
AcDbLine
 10
29.70819548722377
 20
-6.838192148587212
 11
28.76265510437325
 21
-7.005035569150471
  0
LINE
  5
443
100
AcDbEntity
  8
larger
  6
ByLayer
 62
    7
370
   -1
100
AcDbLine
 10
28.76265510437325
 20
-7.005035569150471
 11
27.81413628907668
 21
-7.15521893959792
  0
LINE
  5
444
100
AcDbEntity
  8
larger
  6
ByLayer
 62
    7
370
   -1
100
AcDbLine
 10
27.81413628907668
 20
-7.15521893959792
 11
26.86298727929184
 21
-7.288603484024088
  0
LINE
  5
445
100
AcDbEntity
  8
larger
  6
ByLayer
 62
    7
370
   -1
100
AcDbLine
 10
26.86298727929184
 20
-7.288603484024088
 11
25.90955631297652
 21
-7.405050426523502
  0
LINE
  5
446
100
AcDbEntity
  8
larger
  6
ByLayer
 62
    7
370
   -1
100
AcDbLine
 10
25.90955631297652
 20
-7.405050426523502
 11
24.95419162808847
 21
-7.504420991190684
  0
LINE
  5
447
100
AcDbEntity
  8
larger
  6
ByLayer
 62
    7
370
   -1
100
AcDbLine
 10
24.95419162808847
 20
-7.504420991190684
 11
23.99724146258546
 21
-7.586576402120159
  0
LINE
  5
448
100
AcDbEntity
  8
larger
  6
ByLayer
 62
    7
370
   -1
100
AcDbLine
 10
23.99724146258546
 20
-7.586576402120159
 11
23.03905405442528
 21
-7.651377883406453
  0
LINE
  5
449
100
AcDbEntity
  8
larger
  6
ByLayer
 62
    7
370
   -1
100
AcDbLine
 10
23.03905405442528
 20
-7.651377883406453
 11
22.07997764156569
 21
-7.698686659144093
  0
LINE
  5
44A
100
AcDbEntity
  8
larger
  6
ByLayer
 62
    7
370
   -1
100
AcDbLine
 10
22.07997764156569
 20
-7.698686659144093
 11
21.12036046196447
 21
-7.728363953427602
  0
LINE
  5
44B
100
AcDbEntity
  8
larger
  6
ByLayer
 62
    7
370
   -1
100
AcDbLine
 10
21.12036046196447
 20
-7.728363953427602
 11
20.16055075357939
 21
-7.740270990351505
  0
LINE
  5
44C
100
AcDbEntity
  8
larger
  6
ByLayer
 62
    7
370
   -1
100
AcDbLine
 10
20.16055075357939
 20
-7.740270990351505
 11
19.20089675436822
 21
-7.734268994010328
  0
LINE
  5
44D
100
AcDbEntity
  8
larger
  6
ByLayer
 62
    7
370
   -1
100
AcDbLine
 10
19.20089675436822
 20
-7.734268994010328
 11
18.24174670228873
 21
-7.710219188498597
  0
LINE
  5
44E
100
AcDbEntity
  8
larger
  6
ByLayer
 62
    7
370
   -1
100
AcDbLine
 10
18.24174670228873
 20
-7.710219188498597
 11
17.2834488352987
 21
-7.667982797910835
  0
LINE
  5
44F
100
AcDbEntity
  8
larger
  6
ByLayer
 62
    7
370
   -1
100
AcDbLine
 10
17.2834488352987
 20
-7.667982797910835
 11
16.3263513913559
 21
-7.60742104634157
  0
LINE
  5
450
100
AcDbEntity
  8
larger
  6
ByLayer
 62
    7
370
   -1
100
AcDbLine
 10
16.3263513913559
 20
-7.60742104634157
 11
15.3708026084181
 21
-7.528395157885326
  0
LINE
  5
451
100
AcDbEntity
  8
larger
  6
ByLayer
 62
    7
370
   -1
100
AcDbLine
 10
15.3708026084181
 20
-7.528395157885326
 11
14.41715072444308
 21
-7.430766356636626
  0
LINE
  5
452
100
AcDbEntity
  8
larger
  6
ByLayer
 62
    7
370
   -1
100
AcDbLine
 10
14.41715072444308
 20
-7.430766356636626
 11
13.4657439773886
 21
-7.314395866689998
  0
LINE
  5
453
100
AcDbEntity
  8
larger
  6
ByLayer
 62
    7
370
   -1
100
AcDbLine
 10
13.4657439773886
 20
-7.314395866689998
 11
12.51693060521244
 21
-7.179144912139966
  0
LINE
  5
454
100
AcDbEntity
  8
larger
  6
ByLayer
 62
    7
370
   -1
100
AcDbLine
 10
12.51693060521244
 20
-7.179144912139966
 11
11.57105884587237
 21
-7.024874717081056
  0
LINE
  5
455
100
AcDbEntity
  8
larger
  6
ByLayer
 62
    7
370
   -1
100
AcDbLine
 10
11.57105884587237
 20
-7.024874717081056
 11
10.62847693732617
 21
-6.851446505607793
  0
LINE
  5
456
100
AcDbEntity
  8
larger
  6
ByLayer
 62
    7
370
   -1
100
AcDbLine
 10
10.62847693732617
 20
-6.851446505607793
 11
9.689533117531596
 21
-6.658721501814702
  0
LINE
  5
457
100
AcDbEntity
  8
larger
  6
ByLayer
 62
    7
370
   -1
100
AcDbLine
 10
9.689533117531596
 20
-6.658721501814702
 11
8.754575624446437
 21
-6.446560929796307
  0
LINE
  5
458
100
AcDbEntity
  8
larger
  6
ByLayer
 62
    7
370
   -1
100
AcDbLine
 10
8.754575624446437
 20
-6.446560929796307
 11
7.823952696028459
 21
-6.214826013647135
  0
LINE
  5
459
100
AcDbEntity
  8
larger
  6
ByLayer
 62
    7
370
   -1
100
AcDbLine
 10
7.823952696028459
 20
-6.214826013647135
 11
6.898012570235416
 21
-5.963377977461706
  0
LINE
  5
45A
100
AcDbEntity
  8
larger
  6
ByLayer
 62
    7
370
   -1
100
AcDbLine
 10
6.898012570235416
 20
-5.963377977461706
 11
6.474974661907399
 21
-5.834065586857162
  0
LINE
  5
45B
100
AcDbEntity
  8
larger
  6
ByLayer
 62
    7
370
   -1
100
AcDbLine
 10
6.474974661907399
 20
-5.834065586857162
 11
6.055278136077451
 21
-5.693849614331901
  0
LINE
  5
45C
100
AcDbEntity
  8
larger
  6
ByLayer
 62
    7
370
   -1
100
AcDbLine
 10
6.055278136077451
 20
-5.693849614331901
 11
5.639257597928345
 21
-5.542833665270105
  0
LINE
  5
45D
100
AcDbEntity
  8
larger
  6
ByLayer
 62
    7
370
   -1
100
AcDbLine
 10
5.639257597928345
 20
-5.542833665270105
 11
5.227247652642856
 21
-5.381121345055946
  0
LINE
  5
45E
100
AcDbEntity
  8
larger
  6
ByLayer
 62
    7
370
   -1
100
AcDbLine
 10
5.227247652642856
 20
-5.381121345055946
 11
4.819582905403757
 21
-5.208816259073601
  0
LINE
  5
45F
100
AcDbEntity
  8
larger
  6
ByLayer
 62
    7
370
   -1
100
AcDbLine
 10
4.819582905403757
 20
-5.208816259073601
 11
4.416597961393823
 21
-5.026022012707251
  0
LINE
  5
460
100
AcDbEntity
  8
larger
  6
ByLayer
 62
    7
370
   -1
100
AcDbLine
 10
4.416597961393823
 20
-5.026022012707251
 11
4.018627425795823
 21
-4.832842211341065
  0
LINE
  5
461
100
AcDbEntity
  8
larger
  6
ByLayer
 62
    7
370
   -1
100
AcDbLine
 10
4.018627425795823
 20
-4.832842211341065
 11
3.626005903792533
 21
-4.629380460359225
  0
LINE
  5
462
100
AcDbEntity
  8
larger
  6
ByLayer
 62
    7
370
   -1
100
AcDbLine
 10
3.626005903792533
 20
-4.629380460359225
 11
3.239068000566727
 21
-4.415740365145905
  0
LINE
  5
463
100
AcDbEntity
  8
larger
  6
ByLayer
 62
    7
370
   -1
100
AcDbLine
 10
3.239068000566727
 20
-4.415740365145905
 11
2.858148321301178
 21
-4.192025531085283
  0
LINE
  5
464
100
AcDbEntity
  8
larger
  6
ByLayer
 62
    7
370
   -1
100
AcDbLine
 10
2.858148321301178
 20
-4.192025531085283
 11
2.483581471178658
 21
-3.958339563561535
  0
LINE
  5
465
100
AcDbEntity
  8
larger
  6
ByLayer
 62
    7
370
   -1
100
AcDbLine
 10
2.483581471178658
 20
-3.958339563561535
 11
2.115702055381941
 21
-3.714786067958836
  0
LINE
  5
466
100
AcDbEntity
  8
larger
  6
ByLayer
 62
    7
370
   -1
100
AcDbLine
 10
2.115702055381941
 20
-3.714786067958836
 11
1.754844679093801
 21
-3.461468649661363
  0
LINE
  5
467
100
AcDbEntity
  8
larger
  6
ByLayer
 62
    7
370
   -1
100
AcDbLine
 10
1.754844679093801
 20
-3.461468649661363
 11
1.401343947497011
 21
-3.198490914053294
  0
LINE
  5
468
100
AcDbEntity
  8
larger
  6
ByLayer
 62
    7
370
   -1
100
AcDbLine
 10
1.401343947497011
 20
-3.198490914053294
 11
1.055534465774343
 21
-2.925956466518804
  0
LINE
  5
469
100
AcDbEntity
  8
larger
  6
ByLayer
 62
    7
370
   -1
100
AcDbLine
 10
1.055534465774343
 20
-2.925956466518804
 11
0.7177508391085722
 21
-2.64396891244207
  0
LINE
  5
46A
100
AcDbEntity
  8
larger
  6
ByLayer
 62
    7
370
   -1
100
AcDbLine
 10
0.7177508391085722
 20
-2.64396891244207
 11
0.3883276726824706
 21
-2.352631857207268
  0
LINE
  5
46B
100
AcDbEntity
  8
larger
  6
ByLayer
 62
    7
370
   -1
100
AcDbLine
 10
0.3883276726824706
 20
-2.352631857207268
 11
0.06759957167881214
 21
-2.052048906198574
  0
LINE
  5
46C
100
AcDbEntity
  8
larger
  6
ByLayer
 62
    7
370
   -1
100
AcDbLine
 10
0.06759957167881214
 20
-2.052048906198574
 11
-0.24409885871963
 21
-1.742323664800165
  0
LINE
  5
46D
100
AcDbEntity
  8
larger
  6
ByLayer
 62
    7
370
   -1
100
AcDbLine
 10
-0.24409885871963
 20
-1.742323664800165
 11
-0.5464330133300824
 21
-1.423559738396218
  0
LINE
  5
46E
100
AcDbEntity
  8
larger
  6
ByLayer
 62
    7
370
   -1
100
AcDbLine
 10
-0.5464330133300824
 20
-1.423559738396218
 11
-0.8390682869697719
 21
-1.095860732370908
  0
LINE
  5
46F
100
AcDbEntity
  8
larger
  6
ByLayer
 62
    7
370
   -1
100
AcDbLine
 10
-0.8390682869697719
 20
-1.095860732370908
 11
-1.121670074455925
 21
-0.7593302521084134
  0
LINE
  5
470
100
AcDbEntity
  8
larger
  6
ByLayer
 62
    7
370
   -1
100
AcDbLine
 10
-1.121670074455925
 20
-0.7593302521084134
 11
-1.393903770605769
 21
-0.414071902992909
  0
LINE
  5
471
100
AcDbEntity
  8
larger
  6
ByLayer
 62
    7
370
   -1
100
AcDbLine
 10
-1.393903770605769
 20
-0.414071902992909
 11
-1.65543477023653
 21
-0.06018929040857146
  0
LINE
  5
472
100
AcDbEntity
  8
larger
  6
ByLayer
 62
    7
370
   -1
100
AcDbLine
 10
-1.65543477023653
 20
-0.06018929040857146
 11
-1.905928468165434
 21
0.3022139802604222
  0
LINE
  5
473
100
AcDbEntity
  8
larger
  6
ByLayer
 62
    7
370
   -1
100
AcDbLine
 10
-1.905928468165434
 20
0.3022139802604222
 11
-2.145050259209708
 21
0.6730343036298956
  0
LINE
  5
474
100
AcDbEntity
  8
larger
  6
ByLayer
 62
    7
370
   -1
100
AcDbLine
 10
-2.145050259209708
 20
0.6730343036298956
 11
-2.372465538186581
 21
1.052168074315673
  0
LINE
  5
475
100
AcDbEntity
  8
larger
  6
ByLayer
 62
    7
370
   -1
100
AcDbLine
 10
-2.372465538186581
 20
1.052168074315673
 11
-2.587839699913276
 21
1.439511686933577
  0
LINE
  5
476
100
AcDbEntity
  8
larger
  6
ByLayer
 62
    7
370
   -1
100
AcDbLine
 10
-2.587839699913276
 20
1.439511686933577
 11
-2.790838139207022
 21
1.834961536099432
  0
LINE
  5
477
100
AcDbEntity
  8
larger
  6
ByLayer
 62
    7
370
   -1
100
AcDbLine
 10
-2.790838139207022
 20
1.834961536099432
 11
-2.981126250885046
 21
2.238414016429062
  0
LINE
  5
478
100
AcDbEntity
  8
larger
  6
ByLayer
 62
    7
370
   -1
100
AcDbLine
 10
-2.981126250885046
 20
2.238414016429062
 11
-3.158369429764576
 21
2.649765522538297
  0
LINE
  5
479
100
AcDbEntity
  8
larger
  6
ByLayer
 62
    7
370
   -1
100
AcDbLine
 10
117.7523464298156
 20
34.53608002253829
 11
117.2863039937443
 21
34.72699922832192
  0
LINE
  5
47A
100
AcDbEntity
  8
larger
  6
ByLayer
 62
    7
370
   -1
100
AcDbLine
 10
117.2863039937443
 20
34.72699922832192
 11
116.8176950962921
 21
34.91062999034736
  0
LINE
  5
47B
100
AcDbEntity
  8
larger
  6
ByLayer
 62
    7
370
   -1
100
AcDbLine
 10
116.8176950962921
 20
34.91062999034736
 11
116.3466223052142
 21
35.08715891272324
  0
LINE
  5
47C
100
AcDbEntity
  8
larger
  6
ByLayer
 62
    7
370
   -1
100
AcDbLine
 10
116.3466223052142
 20
35.08715891272324
 11
115.8731881882661
 21
35.2567725995582
  0
LINE
  5
47D
100
AcDbEntity
  8
larger
  6
ByLayer
 62
    7
370
   -1
100
AcDbLine
 10
115.8731881882661
 20
35.2567725995582
 11
115.3974953132032
 21
35.41965765496083
  0
LINE
  5
47E
100
AcDbEntity
  8
larger
  6
ByLayer
 62
    7
370
   -1
100
AcDbLine
 10
115.3974953132032
 20
35.41965765496083
 11
114.9196462477808
 21
35.57600068303979
  0
LINE
  5
47F
100
AcDbEntity
  8
larger
  6
ByLayer
 62
    7
370
   -1
100
AcDbLine
 10
114.9196462477808
 20
35.57600068303979
 11
114.4397435597542
 21
35.72598828790367
  0
LINE
  5
480
100
AcDbEntity
  8
larger
  6
ByLayer
 62
    7
370
   -1
100
AcDbLine
 10
114.4397435597542
 20
35.72598828790367
 11
113.9578898168788
 21
35.86980707366111
  0
LINE
  5
481
100
AcDbEntity
  8
larger
  6
ByLayer
 62
    7
370
   -1
100
AcDbLine
 10
113.9578898168788
 20
35.86980707366111
 11
113.47418758691
 21
36.00764364442073
  0
LINE
  5
482
100
AcDbEntity
  8
larger
  6
ByLayer
 62
    7
370
   -1
100
AcDbLine
 10
113.47418758691
 20
36.00764364442073
 11
112.9887394376032
 21
36.13968460429115
  0
LINE
  5
483
100
AcDbEntity
  8
larger
  6
ByLayer
 62
    7
370
   -1
100
AcDbLine
 10
112.9887394376032
 20
36.13968460429115
 11
112.5016479367137
 21
36.26611655738103
  0
LINE
  5
484
100
AcDbEntity
  8
larger
  6
ByLayer
 62
    7
370
   -1
100
AcDbLine
 10
112.5016479367137
 20
36.26611655738103
 11
112.0130156519968
 21
36.38712610779893
  0
LINE
  5
485
100
AcDbEntity
  8
larger
  6
ByLayer
 62
    7
370
   -1
100
AcDbLine
 10
112.0130156519968
 20
36.38712610779893
 11
111.522945151208
 21
36.50289985965352
  0
LINE
  5
486
100
AcDbEntity
  8
larger
  6
ByLayer
 62
    7
370
   -1
100
AcDbLine
 10
111.522945151208
 20
36.50289985965352
 11
111.0315390021025
 21
36.61362441705341
  0
LINE
  5
487
100
AcDbEntity
  8
larger
  6
ByLayer
 62
    7
370
   -1
100
AcDbLine
 10
111.0315390021025
 20
36.61362441705341
 11
110.5388997724359
 21
36.71948638410721
  0
LINE
  5
488
100
AcDbEntity
  8
larger
  6
ByLayer
 62
    7
370
   -1
100
AcDbLine
 10
110.5388997724359
 20
36.71948638410721
 11
110.0451300299633
 21
36.82067236492357
  0
LINE
  5
489
100
AcDbEntity
  8
larger
  6
ByLayer
 62
    7
370
   -1
100
AcDbLine
 10
110.0451300299633
 20
36.82067236492357
 11
109.5503323424402
 21
36.91736896361109
  0
LINE
  5
48A
100
AcDbEntity
  8
larger
  6
ByLayer
 62
    7
370
   -1
100
AcDbLine
 10
109.5503323424402
 20
36.91736896361109
 11
109.054609277622
 21
37.00976278427841
  0
LINE
  5
48B
100
AcDbEntity
  8
larger
  6
ByLayer
 62
    7
370
   -1
100
AcDbLine
 10
109.054609277622
 20
37.00976278427841
 11
108.558063403264
 21
37.09804043103414
  0
LINE
  5
48C
100
AcDbEntity
  8
larger
  6
ByLayer
 62
    7
370
   -1
100
AcDbLine
 10
108.558063403264
 20
37.09804043103414
 11
108.0607972871215
 21
37.18238850798691
  0
LINE
  5
48D
100
AcDbEntity
  8
larger
  6
ByLayer
 62
    7
370
   -1
100
AcDbLine
 10
108.0607972871215
 20
37.18238850798691
 11
107.56291349695
 21
37.26299361924534
  0
LINE
  5
48E
100
AcDbEntity
  8
larger
  6
ByLayer
 62
    7
370
   -1
100
AcDbLine
 10
107.56291349695
 20
37.26299361924534
 11
107.0645146005047
 21
37.34004236891806
  0
LINE
  5
48F
100
AcDbEntity
  8
larger
  6
ByLayer
 62
    7
370
   -1
100
AcDbLine
 10
107.0645146005047
 20
37.34004236891806
 11
106.5657031655412
 21
37.41372136111369
  0
LINE
  5
490
100
AcDbEntity
  8
larger
  6
ByLayer
 62
    7
370
   -1
100
AcDbLine
 10
106.5657031655412
 20
37.41372136111369
 11
106.0665817598146
 21
37.48421719994086
  0
LINE
  5
491
100
AcDbEntity
  8
larger
  6
ByLayer
 62
    7
370
   -1
100
AcDbLine
 10
106.0665817598146
 20
37.48421719994086
 11
105.5672529510804
 21
37.55171648950817
  0
LINE
  5
492
100
AcDbEntity
  8
larger
  6
ByLayer
 62
    7
370
   -1
100
AcDbLine
 10
105.5672529510804
 20
37.55171648950817
 11
105.067819307094
 21
37.61640583392427
  0
LINE
  5
493
100
AcDbEntity
  8
larger
  6
ByLayer
 62
    7
370
   -1
100
AcDbLine
 10
105.067819307094
 20
37.61640583392427
 11
104.5683833956107
 21
37.67847183729778
  0
LINE
  5
494
100
AcDbEntity
  8
larger
  6
ByLayer
 62
    7
370
   -1
100
AcDbLine
 10
104.5683833956107
 20
37.67847183729778
 11
104.0690477843858
 21
37.73810110373731
  0
LINE
  5
495
100
AcDbEntity
  8
larger
  6
ByLayer
 62
    7
370
   -1
100
AcDbLine
 10
104.0690477843858
 20
37.73810110373731
 11
103.5699150411747
 21
37.79548023735148
  0
LINE
  5
496
100
AcDbEntity
  8
larger
  6
ByLayer
 62
    7
370
   -1
100
AcDbLine
 10
103.5699150411747
 20
37.79548023735148
 11
103.0710877337329
 21
37.85079584224894
  0
LINE
  5
497
100
AcDbEntity
  8
larger
  6
ByLayer
 62
    7
370
   -1
100
AcDbLine
 10
103.0710877337329
 20
37.85079584224894
 11
102.5726684298156
 21
37.90423452253829
  0
LINE
  5
498
100
AcDbEntity
  8
larger
  6
ByLayer
 62
    7
370
   -1
100
AcDbLine
 10
102.5726684298156
 20
37.90423452253829
 11
101.6150234332395
 21
37.99075987826653
  0
LINE
  5
499
100
AcDbEntity
  8
larger
  6
ByLayer
 62
    7
370
   -1
100
AcDbLine
 10
101.6150234332395
 20
37.99075987826653
 11
100.655622036811
 21
38.06564248282831
  0
LINE
  5
49A
100
AcDbEntity
  8
larger
  6
ByLayer
 62
    7
370
   -1
100
AcDbLine
 10
100.655622036811
 20
38.06564248282831
 11
99.69470963048023
 21
38.12870464228923
  0
LINE
  5
49B
100
AcDbEntity
  8
larger
  6
ByLayer
 62
    7
370
   -1
100
AcDbLine
 10
99.69470963048023
 20
38.12870464228923
 11
98.73253160419713
 21
38.17976866271485
  0
LINE
  5
49C
100
AcDbEntity
  8
larger
  6
ByLayer
 62
    7
370
   -1
100
AcDbLine
 10
98.73253160419713
 20
38.17976866271485
 11
97.76933334791167
 21
38.2186568501708
  0
LINE
  5
49D
100
AcDbEntity
  8
larger
  6
ByLayer
 62
    7
370
   -1
100
AcDbLine
 10
97.76933334791167
 20
38.2186568501708
 11
96.80536025157387
 21
38.24519151072264
  0
LINE
  5
49E
100
AcDbEntity
  8
larger
  6
ByLayer
 62
    7
370
   -1
100
AcDbLine
 10
96.80536025157387
 20
38.24519151072264
 11
95.84085770513364
 21
38.25919495043597
  0
LINE
  5
49F
100
AcDbEntity
  8
larger
  6
ByLayer
 62
    7
370
   -1
100
AcDbLine
 10
95.84085770513364
 20
38.25919495043597
 11
94.87607109854106
 21
38.2604894753764
  0
LINE
  5
4A0
100
AcDbEntity
  8
larger
  6
ByLayer
 62
    7
370
   -1
100
AcDbLine
 10
94.87607109854106
 20
38.2604894753764
 11
93.91124582174605
 21
38.24889739160947
  0
LINE
  5
4A1
100
AcDbEntity
  8
larger
  6
ByLayer
 62
    7
370
   -1
100
AcDbLine
 10
93.91124582174605
 20
38.24889739160947
 11
92.94662726469861
 21
38.22424100520083
  0
LINE
  5
4A2
100
AcDbEntity
  8
larger
  6
ByLayer
 62
    7
370
   -1
100
AcDbLine
 10
92.94662726469861
 20
38.22424100520083
 11
91.98246081734877
 21
38.18634262221604
  0
LINE
  5
4A3
100
AcDbEntity
  8
larger
  6
ByLayer
 62
    7
370
   -1
100
AcDbLine
 10
91.98246081734877
 20
38.18634262221604
 11
91.01899186964643
 21
38.13502454872069
  0
LINE
  5
4A4
100
AcDbEntity
  8
larger
  6
ByLayer
 62
    7
370
   -1
100
AcDbLine
 10
91.01899186964643
 20
38.13502454872069
 11
90.05646581154163
 21
38.07010909078037
  0
LINE
  5
4A5
100
AcDbEntity
  8
larger
  6
ByLayer
 62
    7
370
   -1
100
AcDbLine
 10
90.05646581154163
 20
38.07010909078037
 11
89.09512803298436
 21
37.99141855446069
  0
LINE
  5
4A6
100
AcDbEntity
  8
larger
  6
ByLayer
 62
    7
370
   -1
100
AcDbLine
 10
89.09512803298436
 20
37.99141855446069
 11
88.13522392392457
 21
37.8987752458272
  0
LINE
  5
4A7
100
AcDbEntity
  8
larger
  6
ByLayer
 62
    7
370
   -1
100
AcDbLine
 10
88.13522392392457
 20
37.8987752458272
 11
87.17699887431228
 21
37.79200147094552
  0
LINE
  5
4A8
100
AcDbEntity
  8
larger
  6
ByLayer
 62
    7
370
   -1
100
AcDbLine
 10
87.17699887431228
 20
37.79200147094552
 11
86.22069827409744
 21
37.67091953588125
  0
LINE
  5
4A9
100
AcDbEntity
  8
larger
  6
ByLayer
 62
    7
370
   -1
100
AcDbLine
 10
86.22069827409744
 20
37.67091953588125
 11
85.26656751323007
 21
37.53535174669994
  0
LINE
  5
4AA
100
AcDbEntity
  8
larger
  6
ByLayer
 62
    7
370
   -1
100
AcDbLine
 10
85.26656751323007
 20
37.53535174669994
 11
84.31485198166013
 21
37.38512040946723
  0
LINE
  5
4AB
100
AcDbEntity
  8
larger
  6
ByLayer
 62
    7
370
   -1
100
AcDbLine
 10
84.31485198166013
 20
37.38512040946723
 11
83.36579706933762
 21
37.22004783024867
  0
LINE
  5
4AC
100
AcDbEntity
  8
larger
  6
ByLayer
 62
    7
370
   -1
100
AcDbLine
 10
83.36579706933762
 20
37.22004783024867
 11
82.41964816621251
 21
37.03995631510988
  0
LINE
  5
4AD
100
AcDbEntity
  8
larger
  6
ByLayer
 62
    7
370
   -1
100
AcDbLine
 10
82.41964816621251
 20
37.03995631510988
 11
81.4766506622348
 21
36.84466817011642
  0
LINE
  5
4AE
100
AcDbEntity
  8
larger
  6
ByLayer
 62
    7
370
   -1
100
AcDbLine
 10
81.4766506622348
 20
36.84466817011642
 11
80.53704994735446
 21
36.6340057013339
  0
LINE
  5
4AF
100
AcDbEntity
  8
larger
  6
ByLayer
 62
    7
370
   -1
100
AcDbLine
 10
80.53704994735446
 20
36.6340057013339
 11
79.60109141152151
 21
36.40779121482791
  0
LINE
  5
4B0
100
AcDbEntity
  8
larger
  6
ByLayer
 62
    7
370
   -1
100
AcDbLine
 10
79.60109141152151
 20
36.40779121482791
 11
78.66902044468588
 21
36.16584701666403
  0
LINE
  5
4B1
100
AcDbEntity
  8
larger
  6
ByLayer
 62
    7
370
   -1
100
AcDbLine
 10
78.66902044468588
 20
36.16584701666403
 11
77.7410824367976
 21
35.90799541290787
  0
LINE
  5
4B2
100
AcDbEntity
  8
larger
  6
ByLayer
 62
    7
370
   -1
100
AcDbLine
 10
77.7410824367976
 20
35.90799541290787
 11
76.81752277780663
 21
35.63405870962499
  0
LINE
  5
4B3
100
AcDbEntity
  8
larger
  6
ByLayer
 62
    7
370
   -1
100
AcDbLine
 10
76.81752277780663
 20
35.63405870962499
 11
75.89858685766296
 21
35.34385921288101
  0
LINE
  5
4B4
100
AcDbEntity
  8
larger
  6
ByLayer
 62
    7
370
   -1
100
AcDbLine
 10
75.89858685766296
 20
35.34385921288101
 11
74.98452006631658
 21
35.03721922874151
  0
LINE
  5
4B5
100
AcDbEntity
  8
larger
  6
ByLayer
 62
    7
370
   -1
100
AcDbLine
 10
74.98452006631658
 20
35.03721922874151
 11
74.07556779371747
 21
34.71396106327207
  0
LINE
  5
4B6
100
AcDbEntity
  8
larger
  6
ByLayer
 62
    7
370
   -1
100
AcDbLine
 10
74.07556779371747
 20
34.71396106327207
 11
73.1719754298156
 21
34.37390702253829
  0
LINE
  5
4B7
100
AcDbEntity
  8
larger
  6
ByLayer
 62
    7
370
   -1
100
AcDbLine
 10
69.0248109298156
 20
6.807556022538293
 11
69.2632115144049
 21
6.281187650714588
  0
LINE
  5
4B8
100
AcDbEntity
  8
larger
  6
ByLayer
 62
    7
370
   -1
100
AcDbLine
 10
69.2632115144049
 20
6.281187650714588
 11
69.51323875533339
 21
5.757568765950734
  0
LINE
  5
4B9
100
AcDbEntity
  8
larger
  6
ByLayer
 62
    7
370
   -1
100
AcDbLine
 10
69.51323875533339
 20
5.757568765950734
 11
69.77486778656764
 21
5.237370311081814
  0
LINE
  5
4BA
100
AcDbEntity
  8
larger
  6
ByLayer
 62
    7
370
   -1
100
AcDbLine
 10
69.77486778656764
 20
5.237370311081814
 11
70.04807374207434
 21
4.721263228942912
  0
LINE
  5
4BB
100
AcDbEntity
  8
larger
  6
ByLayer
 62
    7
370
   -1
100
AcDbLine
 10
70.04807374207434
 20
4.721263228942912
 11
70.33283175582011
 21
4.209918462369114
  0
LINE
  5
4BC
100
AcDbEntity
  8
larger
  6
ByLayer
 62
    7
370
   -1
100
AcDbLine
 10
70.33283175582011
 20
4.209918462369114
 11
70.62911696177156
 21
3.704006954195505
  0
LINE
  5
4BD
100
AcDbEntity
  8
larger
  6
ByLayer
 62
    7
370
   -1
100
AcDbLine
 10
70.62911696177156
 20
3.704006954195505
 11
70.93690449389537
 21
3.204199647257168
  0
LINE
  5
4BE
100
AcDbEntity
  8
larger
  6
ByLayer
 62
    7
370
   -1
100
AcDbLine
 10
70.93690449389537
 20
3.204199647257168
 11
71.25616948615813
 21
2.711167484389188
  0
LINE
  5
4BF
100
AcDbEntity
  8
larger
  6
ByLayer
 62
    7
370
   -1
100
AcDbLine
 10
71.25616948615813
 20
2.711167484389188
 11
71.58688707252648
 21
2.225581408426649
  0
LINE
  5
4C0
100
AcDbEntity
  8
larger
  6
ByLayer
 62
    7
370
   -1
100
AcDbLine
 10
71.58688707252648
 20
2.225581408426649
 11
71.92903238696707
 21
1.748112362204636
  0
LINE
  5
4C1
100
AcDbEntity
  8
larger
  6
ByLayer
 62
    7
370
   -1
100
AcDbLine
 10
71.92903238696707
 20
1.748112362204636
 11
72.28258056344657
 21
1.279431288558234
  0
LINE
  5
4C2
100
AcDbEntity
  8
larger
  6
ByLayer
 62
    7
370
   -1
100
AcDbLine
 10
72.28258056344657
 20
1.279431288558234
 11
72.64750673593154
 21
0.8202091303225253
  0
LINE
  5
4C3
100
AcDbEntity
  8
larger
  6
ByLayer
 62
    7
370
   -1
100
AcDbLine
 10
72.64750673593154
 20
0.8202091303225253
 11
73.02378603838866
 21
0.3711168303325956
  0
LINE
  5
4C4
100
AcDbEntity
  8
larger
  6
ByLayer
 62
    7
370
   -1
100
AcDbLine
 10
73.02378603838866
 20
0.3711168303325956
 11
73.41139360478455
 21
-0.06717466857647048
  0
LINE
  5
4C5
100
AcDbEntity
  8
larger
  6
ByLayer
 62
    7
370
   -1
100
AcDbLine
 10
73.41139360478455
 20
-0.06717466857647048
 11
73.81030456908584
 21
-0.4939944235695891
  0
LINE
  5
4C6
100
AcDbEntity
  8
larger
  6
ByLayer
 62
    7
370
   -1
100
AcDbLine
 10
73.81030456908584
 20
-0.4939944235695891
 11
74.22049406525919
 21
-0.9086714918116753
  0
LINE
  5
4C7
100
AcDbEntity
  8
larger
  6
ByLayer
 62
    7
370
   -1
100
AcDbLine
 10
74.22049406525919
 20
-0.9086714918116753
 11
74.6419372272712
 21
-1.310534930467645
  0
LINE
  5
4C8
100
AcDbEntity
  8
larger
  6
ByLayer
 62
    7
370
   -1
100
AcDbLine
 10
74.6419372272712
 20
-1.310534930467645
 11
75.07460918908853
 21
-1.698913796702413
  0
LINE
  5
4C9
100
AcDbEntity
  8
larger
  6
ByLayer
 62
    7
370
   -1
100
AcDbLine
 10
75.07460918908853
 20
-1.698913796702413
 11
75.51848508467781
 21
-2.073137147680897
  0
LINE
  5
4CA
100
AcDbEntity
  8
larger
  6
ByLayer
 62
    7
370
   -1
100
AcDbLine
 10
75.51848508467781
 20
-2.073137147680897
 11
75.97354004800565
 21
-2.43253404056801
  0
LINE
  5
4CB
100
AcDbEntity
  8
larger
  6
ByLayer
 62
    7
370
   -1
100
AcDbLine
 10
75.97354004800565
 20
-2.43253404056801
 11
76.43974921303872
 21
-2.776433532528669
  0
LINE
  5
4CC
100
AcDbEntity
  8
larger
  6
ByLayer
 62
    7
370
   -1
100
AcDbLine
 10
76.43974921303872
 20
-2.776433532528669
 11
76.91708771374364
 21
-3.104164680727789
  0
LINE
  5
4CD
100
AcDbEntity
  8
larger
  6
ByLayer
 62
    7
370
   -1
100
AcDbLine
 10
76.91708771374364
 20
-3.104164680727789
 11
77.40553068408703
 21
-3.415056542330286
  0
LINE
  5
4CE
100
AcDbEntity
  8
larger
  6
ByLayer
 62
    7
370
   -1
100
AcDbLine
 10
77.40553068408703
 20
-3.415056542330286
 11
77.90505325803554
 21
-3.708438174501075
  0
LINE
  5
4CF
100
AcDbEntity
  8
larger
  6
ByLayer
 62
    7
370
   -1
100
AcDbLine
 10
77.90505325803554
 20
-3.708438174501075
 11
78.41563056955579
 21
-3.983638634405073
  0
LINE
  5
4D0
100
AcDbEntity
  8
larger
  6
ByLayer
 62
    7
370
   -1
100
AcDbLine
 10
78.41563056955579
 20
-3.983638634405073
 11
78.93723775261442
 21
-4.239986979207194
  0
LINE
  5
4D1
100
AcDbEntity
  8
larger
  6
ByLayer
 62
    7
370
   -1
100
AcDbLine
 10
78.93723775261442
 20
-4.239986979207194
 11
79.46984994117808
 21
-4.476812266072354
  0
LINE
  5
4D2
100
AcDbEntity
  8
larger
  6
ByLayer
 62
    7
370
   -1
100
AcDbLine
 10
79.46984994117808
 20
-4.476812266072354
 11
80.0134422692134
 21
-4.693443552165469
  0
LINE
  5
4D3
100
AcDbEntity
  8
larger
  6
ByLayer
 62
    7
370
   -1
100
AcDbLine
 10
80.0134422692134
 20
-4.693443552165469
 11
80.56798987068699
 21
-4.889209894651454
  0
LINE
  5
4D4
100
AcDbEntity
  8
larger
  6
ByLayer
 62
    7
370
   -1
100
AcDbLine
 10
80.56798987068699
 20
-4.889209894651454
 11
81.13346787956552
 21
-5.063440350695225
  0
LINE
  5
4D5
100
AcDbEntity
  8
larger
  6
ByLayer
 62
    7
370
   -1
100
AcDbLine
 10
81.13346787956552
 20
-5.063440350695225
 11
81.7098514298156
 21
-5.215463977461701
  0
LINE
  5
4D6
100
AcDbEntity
  8
larger
  6
ByLayer
 62
    7
370
   -1
100
AcDbLine
 10
81.7098514298156
 20
-5.215463977461701
 11
82.62479212272622
 21
-5.495042023482311
  0
LINE
  5
4D7
100
AcDbEntity
  8
larger
  6
ByLayer
 62
    7
370
   -1
100
AcDbLine
 10
82.62479212272622
 20
-5.495042023482311
 11
83.54514891378729
 21
-5.758931450725439
  0
LINE
  5
4D8
100
AcDbEntity
  8
larger
  6
ByLayer
 62
    7
370
   -1
100
AcDbLine
 10
83.54514891378729
 20
-5.758931450725439
 11
84.47057356504099
 21
-6.006993483285608
  0
LINE
  5
4D9
100
AcDbEntity
  8
larger
  6
ByLayer
 62
    7
370
   -1
100
AcDbLine
 10
84.47057356504099
 20
-6.006993483285608
 11
85.40071783852966
 21
-6.239089345257344
  0
LINE
  5
4DA
100
AcDbEntity
  8
larger
  6
ByLayer
 62
    7
370
   -1
100
AcDbLine
 10
85.40071783852966
 20
-6.239089345257344
 11
86.3352334962954
 21
-6.455080260735173
  0
LINE
  5
4DB
100
AcDbEntity
  8
larger
  6
ByLayer
 62
    7
370
   -1
100
AcDbLine
 10
86.3352334962954
 20
-6.455080260735173
 11
87.27377230038054
 21
-6.654827453813621
  0
LINE
  5
4DC
100
AcDbEntity
  8
larger
  6
ByLayer
 62
    7
370
   -1
100
AcDbLine
 10
87.27377230038054
 20
-6.654827453813621
 11
88.21598601282724
 21
-6.838192148587209
  0
LINE
  5
4DD
100
AcDbEntity
  8
larger
  6
ByLayer
 62
    7
370
   -1
100
AcDbLine
 10
88.21598601282724
 20
-6.838192148587209
 11
89.16152639567777
 21
-7.005035569150467
  0
LINE
  5
4DE
100
AcDbEntity
  8
larger
  6
ByLayer
 62
    7
370
   -1
100
AcDbLine
 10
89.16152639567777
 20
-7.005035569150467
 11
90.11004521097433
 21
-7.155218939597916
  0
LINE
  5
4DF
100
AcDbEntity
  8
larger
  6
ByLayer
 62
    7
370
   -1
100
AcDbLine
 10
90.11004521097433
 20
-7.155218939597916
 11
91.06119422075915
 21
-7.288603484024085
  0
LINE
  5
4E0
100
AcDbEntity
  8
larger
  6
ByLayer
 62
    7
370
   -1
100
AcDbLine
 10
91.06119422075915
 20
-7.288603484024085
 11
92.0146251870745
 21
-7.405050426523498
  0
LINE
  5
4E1
100
AcDbEntity
  8
larger
  6
ByLayer
 62
    7
370
   -1
100
AcDbLine
 10
92.0146251870745
 20
-7.405050426523498
 11
92.96998987196255
 21
-7.50442099119068
  0
LINE
  5
4E2
100
AcDbEntity
  8
larger
  6
ByLayer
 62
    7
370
   -1
100
AcDbLine
 10
92.96998987196255
 20
-7.50442099119068
 11
93.92694003746556
 21
-7.586576402120156
  0
LINE
  5
4E3
100
AcDbEntity
  8
larger
  6
ByLayer
 62
    7
370
   -1
100
AcDbLine
 10
93.92694003746556
 20
-7.586576402120156
 11
94.88512744562573
 21
-7.651377883406451
  0
LINE
  5
4E4
100
AcDbEntity
  8
larger
  6
ByLayer
 62
    7
370
   -1
100
AcDbLine
 10
94.88512744562573
 20
-7.651377883406451
 11
95.84420385848534
 21
-7.69868665914409
  0
LINE
  5
4E5
100
AcDbEntity
  8
larger
  6
ByLayer
 62
    7
370
   -1
100
AcDbLine
 10
95.84420385848534
 20
-7.69868665914409
 11
96.80382103808654
 21
-7.728363953427598
  0
LINE
  5
4E6
100
AcDbEntity
  8
larger
  6
ByLayer
 62
    7
370
   -1
100
AcDbLine
 10
96.80382103808654
 20
-7.728363953427598
 11
97.76363074647162
 21
-7.740270990351501
  0
LINE
  5
4E7
100
AcDbEntity
  8
larger
  6
ByLayer
 62
    7
370
   -1
100
AcDbLine
 10
97.76363074647162
 20
-7.740270990351501
 11
98.7232847456828
 21
-7.734268994010325
  0
LINE
  5
4E8
100
AcDbEntity
  8
larger
  6
ByLayer
 62
    7
370
   -1
100
AcDbLine
 10
98.7232847456828
 20
-7.734268994010325
 11
99.6824347977623
 21
-7.710219188498594
  0
LINE
  5
4E9
100
AcDbEntity
  8
larger
  6
ByLayer
 62
    7
370
   -1
100
AcDbLine
 10
99.6824347977623
 20
-7.710219188498594
 11
100.6407326647523
 21
-7.667982797910833
  0
LINE
  5
4EA
100
AcDbEntity
  8
larger
  6
ByLayer
 62
    7
370
   -1
100
AcDbLine
 10
100.6407326647523
 20
-7.667982797910833
 11
101.5978301086951
 21
-7.607421046341567
  0
LINE
  5
4EB
100
AcDbEntity
  8
larger
  6
ByLayer
 62
    7
370
   -1
100
AcDbLine
 10
101.5978301086951
 20
-7.607421046341567
 11
102.5533788916329
 21
-7.528395157885322
  0
LINE
  5
4EC
100
AcDbEntity
  8
larger
  6
ByLayer
 62
    7
370
   -1
100
AcDbLine
 10
102.5533788916329
 20
-7.528395157885322
 11
103.5070307756079
 21
-7.430766356636623
  0
LINE
  5
4ED
100
AcDbEntity
  8
larger
  6
ByLayer
 62
    7
370
   -1
100
AcDbLine
 10
103.5070307756079
 20
-7.430766356636623
 11
104.4584375226624
 21
-7.314395866689995
  0
LINE
  5
4EE
100
AcDbEntity
  8
larger
  6
ByLayer
 62
    7
370
   -1
100
AcDbLine
 10
104.4584375226624
 20
-7.314395866689995
 11
105.4072508948386
 21
-7.179144912139963
  0
LINE
  5
4EF
100
AcDbEntity
  8
larger
  6
ByLayer
 62
    7
370
   -1
100
AcDbLine
 10
105.4072508948386
 20
-7.179144912139963
 11
106.3531226541787
 21
-7.024874717081053
  0
LINE
  5
4F0
100
AcDbEntity
  8
larger
  6
ByLayer
 62
    7
370
   -1
100
AcDbLine
 10
106.3531226541787
 20
-7.024874717081053
 11
107.2957045627249
 21
-6.85144650560779
  0
LINE
  5
4F1
100
AcDbEntity
  8
larger
  6
ByLayer
 62
    7
370
   -1
100
AcDbLine
 10
107.2957045627249
 20
-6.85144650560779
 11
108.2346483825194
 21
-6.658721501814698
  0
LINE
  5
4F2
100
AcDbEntity
  8
larger
  6
ByLayer
 62
    7
370
   -1
100
AcDbLine
 10
108.2346483825194
 20
-6.658721501814698
 11
109.1696058756046
 21
-6.446560929796304
  0
LINE
  5
4F3
100
AcDbEntity
  8
larger
  6
ByLayer
 62
    7
370
   -1
100
AcDbLine
 10
109.1696058756046
 20
-6.446560929796304
 11
110.1002288040226
 21
-6.214826013647133
  0
LINE
  5
4F4
100
AcDbEntity
  8
larger
  6
ByLayer
 62
    7
370
   -1
100
AcDbLine
 10
110.1002288040226
 20
-6.214826013647133
 11
111.0261689298156
 21
-5.963377977461702
  0
LINE
  5
4F5
100
AcDbEntity
  8
larger
  6
ByLayer
 62
    7
370
   -1
100
AcDbLine
 10
111.0261689298156
 20
-5.963377977461702
 11
111.4492068381436
 21
-5.834065586857158
  0
LINE
  5
4F6
100
AcDbEntity
  8
larger
  6
ByLayer
 62
    7
370
   -1
100
AcDbLine
 10
111.4492068381436
 20
-5.834065586857158
 11
111.8689033639736
 21
-5.693849614331898
  0
LINE
  5
4F7
100
AcDbEntity
  8
larger
  6
ByLayer
 62
    7
370
   -1
100
AcDbLine
 10
111.8689033639736
 20
-5.693849614331898
 11
112.2849239021227
 21
-5.542833665270101
  0
LINE
  5
4F8
100
AcDbEntity
  8
larger
  6
ByLayer
 62
    7
370
   -1
100
AcDbLine
 10
112.2849239021227
 20
-5.542833665270101
 11
112.6969338474082
 21
-5.381121345055942
  0
LINE
  5
4F9
100
AcDbEntity
  8
larger
  6
ByLayer
 62
    7
370
   -1
100
AcDbLine
 10
112.6969338474082
 20
-5.381121345055942
 11
113.1045985946472
 21
-5.208816259073597
  0
LINE
  5
4FA
100
AcDbEntity
  8
larger
  6
ByLayer
 62
    7
370
   -1
100
AcDbLine
 10
113.1045985946472
 20
-5.208816259073597
 11
113.5075835386572
 21
-5.026022012707245
  0
LINE
  5
4FB
100
AcDbEntity
  8
larger
  6
ByLayer
 62
    7
370
   -1
100
AcDbLine
 10
113.5075835386572
 20
-5.026022012707245
 11
113.9055540742552
 21
-4.832842211341061
  0
LINE
  5
4FC
100
AcDbEntity
  8
larger
  6
ByLayer
 62
    7
370
   -1
100
AcDbLine
 10
113.9055540742552
 20
-4.832842211341061
 11
114.2981755962585
 21
-4.62938046035922
  0
LINE
  5
4FD
100
AcDbEntity
  8
larger
  6
ByLayer
 62
    7
370
   -1
100
AcDbLine
 10
114.2981755962585
 20
-4.62938046035922
 11
114.6851134994843
 21
-4.4157403651459
  0
LINE
  5
4FE
100
AcDbEntity
  8
larger
  6
ByLayer
 62
    7
370
   -1
100
AcDbLine
 10
114.6851134994843
 20
-4.4157403651459
 11
115.0660331787498
 21
-4.192025531085277
  0
LINE
  5
4FF
100
AcDbEntity
  8
larger
  6
ByLayer
 62
    7
370
   -1
100
AcDbLine
 10
115.0660331787498
 20
-4.192025531085277
 11
115.4406000288724
 21
-3.958339563561529
  0
LINE
  5
500
100
AcDbEntity
  8
larger
  6
ByLayer
 62
    7
370
   -1
100
AcDbLine
 10
115.4406000288724
 20
-3.958339563561529
 11
115.8084794446691
 21
-3.714786067958831
  0
LINE
  5
501
100
AcDbEntity
  8
larger
  6
ByLayer
 62
    7
370
   -1
100
AcDbLine
 10
115.8084794446691
 20
-3.714786067958831
 11
116.1693368209572
 21
-3.461468649661358
  0
LINE
  5
502
100
AcDbEntity
  8
larger
  6
ByLayer
 62
    7
370
   -1
100
AcDbLine
 10
116.1693368209572
 20
-3.461468649661358
 11
116.522837552554
 21
-3.198490914053288
  0
LINE
  5
503
100
AcDbEntity
  8
larger
  6
ByLayer
 62
    7
370
   -1
100
AcDbLine
 10
116.522837552554
 20
-3.198490914053288
 11
116.8686470342767
 21
-2.925956466518798
  0
LINE
  5
504
100
AcDbEntity
  8
larger
  6
ByLayer
 62
    7
370
   -1
100
AcDbLine
 10
116.8686470342767
 20
-2.925956466518798
 11
117.2064306609424
 21
-2.643968912442064
  0
LINE
  5
505
100
AcDbEntity
  8
larger
  6
ByLayer
 62
    7
370
   -1
100
AcDbLine
 10
117.2064306609424
 20
-2.643968912442064
 11
117.5358538273686
 21
-2.352631857207262
  0
LINE
  5
506
100
AcDbEntity
  8
larger
  6
ByLayer
 62
    7
370
   -1
100
AcDbLine
 10
117.5358538273686
 20
-2.352631857207262
 11
117.8565819283722
 21
-2.052048906198568
  0
LINE
  5
507
100
AcDbEntity
  8
larger
  6
ByLayer
 62
    7
370
   -1
100
AcDbLine
 10
117.8565819283722
 20
-2.052048906198568
 11
118.1682803587707
 21
-1.742323664800159
  0
LINE
  5
508
100
AcDbEntity
  8
larger
  6
ByLayer
 62
    7
370
   -1
100
AcDbLine
 10
118.1682803587707
 20
-1.742323664800159
 11
118.4706145133811
 21
-1.423559738396212
  0
LINE
  5
509
100
AcDbEntity
  8
larger
  6
ByLayer
 62
    7
370
   -1
100
AcDbLine
 10
118.4706145133811
 20
-1.423559738396212
 11
118.7632497870208
 21
-1.095860732370903
  0
LINE
  5
50A
100
AcDbEntity
  8
larger
  6
ByLayer
 62
    7
370
   -1
100
AcDbLine
 10
118.7632497870208
 20
-1.095860732370903
 11
119.0458515745069
 21
-0.7593302521084081
  0
LINE
  5
50B
100
AcDbEntity
  8
larger
  6
ByLayer
 62
    7
370
   -1
100
AcDbLine
 10
119.0458515745069
 20
-0.7593302521084081
 11
119.3180852706568
 21
-0.4140719029929036
  0
LINE
  5
50C
100
AcDbEntity
  8
larger
  6
ByLayer
 62
    7
370
   -1
100
AcDbLine
 10
119.3180852706568
 20
-0.4140719029929036
 11
119.5796162702875
 21
-0.06018929040856658
  0
LINE
  5
50D
100
AcDbEntity
  8
larger
  6
ByLayer
 62
    7
370
   -1
100
AcDbLine
 10
119.5796162702875
 20
-0.06018929040856658
 11
119.8301099682164
 21
0.3022139802604265
  0
LINE
  5
50E
100
AcDbEntity
  8
larger
  6
ByLayer
 62
    7
370
   -1
100
AcDbLine
 10
119.8301099682164
 20
0.3022139802604265
 11
120.0692317592607
 21
0.6730343036298995
  0
LINE
  5
50F
100
AcDbEntity
  8
larger
  6
ByLayer
 62
    7
370
   -1
100
AcDbLine
 10
120.0692317592607
 20
0.6730343036298995
 11
120.2966470382376
 21
1.052168074315676
  0
LINE
  5
510
100
AcDbEntity
  8
larger
  6
ByLayer
 62
    7
370
   -1
100
AcDbLine
 10
120.2966470382376
 20
1.052168074315676
 11
120.5120211999643
 21
1.43951168693358
  0
LINE
  5
511
100
AcDbEntity
  8
larger
  6
ByLayer
 62
    7
370
   -1
100
AcDbLine
 10
120.5120211999643
 20
1.43951168693358
 11
120.715019639258
 21
1.834961536099434
  0
LINE
  5
512
100
AcDbEntity
  8
larger
  6
ByLayer
 62
    7
370
   -1
100
AcDbLine
 10
120.715019639258
 20
1.834961536099434
 11
120.9053077509361
 21
2.238414016429063
  0
LINE
  5
513
100
AcDbEntity
  8
larger
  6
ByLayer
 62
    7
370
   -1
100
AcDbLine
 10
120.9053077509361
 20
2.238414016429063
 11
121.0825509298156
 21
2.649765522538297
  0
LINE
  5
514
100
AcDbEntity
  8
larger
  6
ByLayer
 62
    7
370
   -1
100
AcDbLine
 10
119.7490502218036
 20
22.14771093566748
 11
119.7398606282365
 21
22.51924722119902
  0
LINE
  5
515
100
AcDbEntity
  8
larger
  6
ByLayer
 62
    7
370
   -1
100
AcDbLine
 10
119.7398606282365
 20
22.51924722119902
 11
119.7171381787078
 21
22.89042029782196
  0
LINE
  5
516
100
AcDbEntity
  8
larger
  6
ByLayer
 62
    7
370
   -1
100
AcDbLine
 10
119.7171381787078
 20
22.89042029782196
 11
119.6810320693306
 21
23.26073472332073
  0
LINE
  5
517
100
AcDbEntity
  8
larger
  6
ByLayer
 62
    7
370
   -1
100
AcDbLine
 10
119.6810320693306
 20
23.26073472332073
 11
119.631691496218
 21
23.62969505547978
  0
LINE
  5
518
100
AcDbEntity
  8
larger
  6
ByLayer
 62
    7
370
   -1
100
AcDbLine
 10
119.631691496218
 20
23.62969505547978
 11
119.5692656554832
 21
23.99680585208351
  0
LINE
  5
519
100
AcDbEntity
  8
larger
  6
ByLayer
 62
    7
370
   -1
100
AcDbLine
 10
119.5692656554832
 20
23.99680585208351
 11
119.4939037432394
 21
24.36157167091639
  0
LINE
  5
51A
100
AcDbEntity
  8
larger
  6
ByLayer
 62
    7
370
   -1
100
AcDbLine
 10
119.4939037432394
 20
24.36157167091639
 11
119.4057549555998
 21
24.72349706976282
  0
LINE
  5
51B
100
AcDbEntity
  8
larger
  6
ByLayer
 62
    7
370
   -1
100
AcDbLine
 10
119.4057549555998
 20
24.72349706976282
 11
119.3049684886777
 21
25.08208660640724
  0
LINE
  5
51C
100
AcDbEntity
  8
larger
  6
ByLayer
 62
    7
370
   -1
100
AcDbLine
 10
119.3049684886777
 20
25.08208660640724
 11
119.1916935385861
 21
25.43684483863409
  0
LINE
  5
51D
100
AcDbEntity
  8
larger
  6
ByLayer
 62
    7
370
   -1
100
AcDbLine
 10
119.1916935385861
 20
25.43684483863409
 11
119.0660793014384
 21
25.78727632422778
  0
LINE
  5
51E
100
AcDbEntity
  8
larger
  6
ByLayer
 62
    7
370
   -1
100
AcDbLine
 10
119.0660793014384
 20
25.78727632422778
 11
118.9282749733476
 21
26.13288562097278
  0
LINE
  5
51F
100
AcDbEntity
  8
larger
  6
ByLayer
 62
    7
370
   -1
100
AcDbLine
 10
118.9282749733476
 20
26.13288562097278
 11
118.7784297504268
 21
26.47317728665349
  0
LINE
  5
520
100
AcDbEntity
  8
larger
  6
ByLayer
 62
    7
370
   -1
100
AcDbLine
 10
118.7784297504268
 20
26.47317728665349
 11
118.6166928287895
 21
26.80765587905433
  0
LINE
  5
521
100
AcDbEntity
  8
larger
  6
ByLayer
 62
    7
370
   -1
100
AcDbLine
 10
118.6166928287895
 20
26.80765587905433
 11
118.4432134045487
 21
27.13582595595979
  0
LINE
  5
522
100
AcDbEntity
  8
larger
  6
ByLayer
 62
    7
370
   -1
100
AcDbLine
 10
118.4432134045487
 20
27.13582595595979
 11
118.2581406738176
 21
27.45719207515425
  0
LINE
  5
523
100
AcDbEntity
  8
larger
  6
ByLayer
 62
    7
370
   -1
100
AcDbLine
 10
118.2581406738176
 20
27.45719207515425
 11
118.0616238327094
 21
27.77125879442215
  0
LINE
  5
524
100
AcDbEntity
  8
larger
  6
ByLayer
 62
    7
370
   -1
100
AcDbLine
 10
118.0616238327094
 20
27.77125879442215
 11
117.8538120773374
 21
28.07753067154792
  0
LINE
  5
525
100
AcDbEntity
  8
larger
  6
ByLayer
 62
    7
370
   -1
100
AcDbLine
 10
117.8538120773374
 20
28.07753067154792
 11
117.6348546038145
 21
28.375512264316
  0
LINE
  5
526
100
AcDbEntity
  8
larger
  6
ByLayer
 62
    7
370
   -1
100
AcDbLine
 10
117.6348546038145
 20
28.375512264316
 11
117.4049006082542
 21
28.66470813051082
  0
LINE
  5
527
100
AcDbEntity
  8
larger
  6
ByLayer
 62
    7
370
   -1
100
AcDbLine
 10
117.4049006082542
 20
28.66470813051082
 11
117.1640992867695
 21
28.94462282791682
  0
LINE
  5
528
100
AcDbEntity
  8
larger
  6
ByLayer
 62
    7
370
   -1
100
AcDbLine
 10
117.1640992867695
 20
28.94462282791682
 11
116.9125998354736
 21
29.21476091431841
  0
LINE
  5
529
100
AcDbEntity
  8
larger
  6
ByLayer
 62
    7
370
   -1
100
AcDbLine
 10
116.9125998354736
 20
29.21476091431841
 11
116.6505514504799
 21
29.47462694750006
  0
LINE
  5
52A
100
AcDbEntity
  8
larger
  6
ByLayer
 62
    7
370
   -1
100
AcDbLine
 10
116.6505514504799
 20
29.47462694750006
 11
116.3781033279013
 21
29.72372548524614
  0
LINE
  5
52B
100
AcDbEntity
  8
larger
  6
ByLayer
 62
    7
370
   -1
100
AcDbLine
 10
116.3781033279013
 20
29.72372548524614
 11
116.0954046638512
 21
29.96156108534114
  0
LINE
  5
52C
100
AcDbEntity
  8
larger
  6
ByLayer
 62
    7
370
   -1
100
AcDbLine
 10
116.0954046638512
 20
29.96156108534114
 11
115.8026046544427
 21
30.18763830556946
  0
LINE
  5
52D
100
AcDbEntity
  8
larger
  6
ByLayer
 62
    7
370
   -1
100
AcDbLine
 10
115.8026046544427
 20
30.18763830556946
 11
115.4998524957889
 21
30.40146170371555
  0
LINE
  5
52E
100
AcDbEntity
  8
larger
  6
ByLayer
 62
    7
370
   -1
100
AcDbLine
 10
115.4998524957889
 20
30.40146170371555
 11
115.1872973840031
 21
30.60253583756383
  0
LINE
  5
52F
100
AcDbEntity
  8
larger
  6
ByLayer
 62
    7
370
   -1
100
AcDbLine
 10
115.1872973840031
 20
30.60253583756383
 11
114.8650885151985
 21
30.79036526489873
  0
LINE
  5
530
100
AcDbEntity
  8
larger
  6
ByLayer
 62
    7
370
   -1
100
AcDbLine
 10
114.8650885151985
 20
30.79036526489873
 11
114.5333750854882
 21
30.96445454350468
  0
LINE
  5
531
100
AcDbEntity
  8
larger
  6
ByLayer
 62
    7
370
   -1
100
AcDbLine
 10
114.5333750854882
 20
30.96445454350468
 11
114.1923062909855
 21
31.12430823116612
  0
LINE
  5
532
100
AcDbEntity
  8
larger
  6
ByLayer
 62
    7
370
   -1
100
AcDbLine
 10
114.1923062909855
 20
31.12430823116612
 11
113.8420313278036
 21
31.26943088566748
  0
LINE
  5
533
100
AcDbEntity
  8
larger
  6
ByLayer
 62
    7
370
   -1
100
AcDbLine
 10
113.8420313278036
 20
31.26943088566748
 11
113.4567965976041
 21
31.42724636133524
  0
LINE
  5
534
100
AcDbEntity
  8
larger
  6
ByLayer
 62
    7
370
   -1
100
AcDbLine
 10
113.4567965976041
 20
31.42724636133524
 11
113.0694404081101
 21
31.57903714601471
  0
LINE
  5
535
100
AcDbEntity
  8
larger
  6
ByLayer
 62
    7
370
   -1
100
AcDbLine
 10
113.0694404081101
 20
31.57903714601471
 11
112.68004754272
 21
31.72495748828472
  0
LINE
  5
536
100
AcDbEntity
  8
larger
  6
ByLayer
 62
    7
370
   -1
100
AcDbLine
 10
112.68004754272
 20
31.72495748828472
 11
112.2887027848324
 21
31.86516163672412
  0
LINE
  5
537
100
AcDbEntity
  8
larger
  6
ByLayer
 62
    7
370
   -1
100
AcDbLine
 10
112.2887027848324
 20
31.86516163672412
 11
111.8954909178456
 21
31.99980383991172
  0
LINE
  5
538
100
AcDbEntity
  8
larger
  6
ByLayer
 62
    7
370
   -1
100
AcDbLine
 10
111.8954909178456
 20
31.99980383991172
 11
111.500496725158
 21
32.12903834642638
  0
LINE
  5
539
100
AcDbEntity
  8
larger
  6
ByLayer
 62
    7
370
   -1
100
AcDbLine
 10
111.500496725158
 20
32.12903834642638
 11
111.1038049901684
 21
32.2530194048469
  0
LINE
  5
53A
100
AcDbEntity
  8
larger
  6
ByLayer
 62
    7
370
   -1
100
AcDbLine
 10
111.1038049901684
 20
32.2530194048469
 11
110.7055004962751
 21
32.37190126375214
  0
LINE
  5
53B
100
AcDbEntity
  8
larger
  6
ByLayer
 62
    7
370
   -1
100
AcDbLine
 10
110.7055004962751
 20
32.37190126375214
 11
110.3056680268765
 21
32.48583817172091
  0
LINE
  5
53C
100
AcDbEntity
  8
larger
  6
ByLayer
 62
    7
370
   -1
100
AcDbLine
 10
110.3056680268765
 20
32.48583817172091
 11
109.9043923653713
 21
32.59498437733208
  0
LINE
  5
53D
100
AcDbEntity
  8
larger
  6
ByLayer
 62
    7
370
   -1
100
AcDbLine
 10
109.9043923653713
 20
32.59498437733208
 11
109.5017582951578
 21
32.69949412916444
  0
LINE
  5
53E
100
AcDbEntity
  8
larger
  6
ByLayer
 62
    7
370
   -1
100
AcDbLine
 10
109.5017582951578
 20
32.69949412916444
 11
109.0978505996344
 21
32.79952167579685
  0
LINE
  5
53F
100
AcDbEntity
  8
larger
  6
ByLayer
 62
    7
370
   -1
100
AcDbLine
 10
109.0978505996344
 20
32.79952167579685
 11
108.6927540621997
 21
32.89522126580813
  0
LINE
  5
540
100
AcDbEntity
  8
larger
  6
ByLayer
 62
    7
370
   -1
100
AcDbLine
 10
108.6927540621997
 20
32.89522126580813
 11
108.2865534662522
 21
32.98674714777711
  0
LINE
  5
541
100
AcDbEntity
  8
larger
  6
ByLayer
 62
    7
370
   -1
100
AcDbLine
 10
108.2865534662522
 20
32.98674714777711
 11
107.8793335951904
 21
33.07425357028264
  0
LINE
  5
542
100
AcDbEntity
  8
larger
  6
ByLayer
 62
    7
370
   -1
100
AcDbLine
 10
107.8793335951904
 20
33.07425357028264
 11
107.4711792324126
 21
33.15789478190353
  0
LINE
  5
543
100
AcDbEntity
  8
larger
  6
ByLayer
 62
    7
370
   -1
100
AcDbLine
 10
107.4711792324126
 20
33.15789478190353
 11
107.0621751613174
 21
33.23782503121863
  0
LINE
  5
544
100
AcDbEntity
  8
larger
  6
ByLayer
 62
    7
370
   -1
100
AcDbLine
 10
107.0621751613174
 20
33.23782503121863
 11
106.6524061653034
 21
33.31419856680676
  0
LINE
  5
545
100
AcDbEntity
  8
larger
  6
ByLayer
 62
    7
370
   -1
100
AcDbLine
 10
106.6524061653034
 20
33.31419856680676
 11
106.2419570277688
 21
33.38716963724676
  0
LINE
  5
546
100
AcDbEntity
  8
larger
  6
ByLayer
 62
    7
370
   -1
100
AcDbLine
 10
106.2419570277688
 20
33.38716963724676
 11
105.8309125321123
 21
33.45689249111746
  0
LINE
  5
547
100
AcDbEntity
  8
larger
  6
ByLayer
 62
    7
370
   -1
100
AcDbLine
 10
105.8309125321123
 20
33.45689249111746
 11
105.4193574617322
 21
33.52352137699769
  0
LINE
  5
548
100
AcDbEntity
  8
larger
  6
ByLayer
 62
    7
370
   -1
100
AcDbLine
 10
105.4193574617322
 20
33.52352137699769
 11
105.0073766000272
 21
33.58721054346628
  0
LINE
  5
549
100
AcDbEntity
  8
larger
  6
ByLayer
 62
    7
370
   -1
100
AcDbLine
 10
105.0073766000272
 20
33.58721054346628
 11
104.5950547303955
 21
33.64811423910209
  0
LINE
  5
54A
100
AcDbEntity
  8
larger
  6
ByLayer
 62
    7
370
   -1
100
AcDbLine
 10
104.5950547303955
 20
33.64811423910209
 11
104.1824766362358
 21
33.7063867124839
  0
LINE
  5
54B
100
AcDbEntity
  8
larger
  6
ByLayer
 62
    7
370
   -1
100
AcDbLine
 10
104.1824766362358
 20
33.7063867124839
 11
103.7697271009465
 21
33.76218221219059
  0
LINE
  5
54C
100
AcDbEntity
  8
larger
  6
ByLayer
 62
    7
370
   -1
100
AcDbLine
 10
103.7697271009465
 20
33.76218221219059
 11
103.356890907926
 21
33.81565498680098
  0
LINE
  5
54D
100
AcDbEntity
  8
larger
  6
ByLayer
 62
    7
370
   -1
100
AcDbLine
 10
103.356890907926
 20
33.81565498680098
 11
102.944052840573
 21
33.86695928489389
  0
LINE
  5
54E
100
AcDbEntity
  8
larger
  6
ByLayer
 62
    7
370
   -1
100
AcDbLine
 10
102.944052840573
 20
33.86695928489389
 11
102.5312976822857
 21
33.91624935504817
  0
LINE
  5
54F
100
AcDbEntity
  8
larger
  6
ByLayer
 62
    7
370
   -1
100
AcDbLine
 10
102.5312976822857
 20
33.91624935504817
 11
102.1187102164627
 21
33.96367944584264
  0
LINE
  5
550
100
AcDbEntity
  8
larger
  6
ByLayer
 62
    7
370
   -1
100
AcDbLine
 10
102.1187102164627
 20
33.96367944584264
 11
101.7063752265025
 21
34.00940380585612
  0
LINE
  5
551
100
AcDbEntity
  8
larger
  6
ByLayer
 62
    7
370
   -1
100
AcDbLine
 10
101.7063752265025
 20
34.00940380585612
 11
101.2943774958036
 21
34.0535766836675
  0
LINE
  5
552
100
AcDbEntity
  8
larger
  6
ByLayer
 62
    7
370
   -1
100
AcDbLine
 10
101.2943774958036
 20
34.0535766836675
 11
100.5027798142859
 21
34.12509929510685
  0
LINE
  5
553
100
AcDbEntity
  8
larger
  6
ByLayer
 62
    7
370
   -1
100
AcDbLine
 10
100.5027798142859
 20
34.12509929510685
 11
99.70973027737733
 21
34.18699790719071
  0
LINE
  5
554
100
AcDbEntity
  8
larger
  6
ByLayer
 62
    7
370
   -1
100
AcDbLine
 10
99.70973027737733
 20
34.18699790719071
 11
98.91543172654427
 21
34.23912563656769
  0
LINE
  5
555
100
AcDbEntity
  8
larger
  6
ByLayer
 62
    7
370
   -1
100
AcDbLine
 10
98.91543172654427
 20
34.23912563656769
 11
98.1200870032532
 21
34.28133559988648
  0
LINE
  5
556
100
AcDbEntity
  8
larger
  6
ByLayer
 62
    7
370
   -1
100
AcDbLine
 10
98.1200870032532
 20
34.28133559988648
 11
97.32389894897062
 21
34.3134809137957
  0
LINE
  5
557
100
AcDbEntity
  8
larger
  6
ByLayer
 62
    7
370
   -1
100
AcDbLine
 10
97.32389894897062
 20
34.3134809137957
 11
96.52707040516304
 21
34.33541469494405
  0
LINE
  5
558
100
AcDbEntity
  8
larger
  6
ByLayer
 62
    7
370
   -1
100
AcDbLine
 10
96.52707040516304
 20
34.33541469494405
 11
95.7298042132969
 21
34.34699005998013
  0
LINE
  5
559
100
AcDbEntity
  8
larger
  6
ByLayer
 62
    7
370
   -1
100
AcDbLine
 10
95.7298042132969
 20
34.34699005998013
 11
94.93230321483871
 21
34.34806012555261
  0
LINE
  5
55A
100
AcDbEntity
  8
larger
  6
ByLayer
 62
    7
370
   -1
100
AcDbLine
 10
94.93230321483871
 20
34.34806012555261
 11
94.13477025125495
 21
34.33847800831015
  0
LINE
  5
55B
100
AcDbEntity
  8
larger
  6
ByLayer
 62
    7
370
   -1
100
AcDbLine
 10
94.13477025125495
 20
34.33847800831015
 11
93.33740816401209
 21
34.3180968249014
  0
LINE
  5
55C
100
AcDbEntity
  8
larger
  6
ByLayer
 62
    7
370
   -1
100
AcDbLine
 10
93.33740816401209
 20
34.3180968249014
 11
92.54041979457661
 21
34.28676969197502
  0
LINE
  5
55D
100
AcDbEntity
  8
larger
  6
ByLayer
 62
    7
370
   -1
100
AcDbLine
 10
92.54041979457661
 20
34.28676969197502
 11
91.74400798441502
 21
34.24434972617966
  0
LINE
  5
55E
100
AcDbEntity
  8
larger
  6
ByLayer
 62
    7
370
   -1
100
AcDbLine
 10
91.74400798441502
 20
34.24434972617966
 11
90.9483755749938
 21
34.19069004416394
  0
LINE
  5
55F
100
AcDbEntity
  8
larger
  6
ByLayer
 62
    7
370
   -1
100
AcDbLine
 10
90.9483755749938
 20
34.19069004416394
 11
90.1537254077794
 21
34.12564376257655
  0
LINE
  5
560
100
AcDbEntity
  8
larger
  6
ByLayer
 62
    7
370
   -1
100
AcDbLine
 10
90.1537254077794
 20
34.12564376257655
 11
89.36026032423833
 21
34.04906399806613
  0
LINE
  5
561
100
AcDbEntity
  8
larger
  6
ByLayer
 62
    7
370
   -1
100
AcDbLine
 10
89.36026032423833
 20
34.04906399806613
 11
88.56818316583707
 21
33.96080386728133
  0
LINE
  5
562
100
AcDbEntity
  8
larger
  6
ByLayer
 62
    7
370
   -1
100
AcDbLine
 10
88.56818316583707
 20
33.96080386728133
 11
87.7776967740421
 21
33.8607164868708
  0
LINE
  5
563
100
AcDbEntity
  8
larger
  6
ByLayer
 62
    7
370
   -1
100
AcDbLine
 10
87.7776967740421
 20
33.8607164868708
 11
86.98900399031992
 21
33.7486549734832
  0
LINE
  5
564
100
AcDbEntity
  8
larger
  6
ByLayer
 62
    7
370
   -1
100
AcDbLine
 10
86.98900399031992
 20
33.7486549734832
 11
86.20230765613695
 21
33.62447244376717
  0
LINE
  5
565
100
AcDbEntity
  8
larger
  6
ByLayer
 62
    7
370
   -1
100
AcDbLine
 10
86.20230765613695
 20
33.62447244376717
 11
85.41781061295976
 21
33.4880220143714
  0
LINE
  5
566
100
AcDbEntity
  8
larger
  6
ByLayer
 62
    7
370
   -1
100
AcDbLine
 10
85.41781061295976
 20
33.4880220143714
 11
84.63571570225479
 21
33.33915680194448
  0
LINE
  5
567
100
AcDbEntity
  8
larger
  6
ByLayer
 62
    7
370
   -1
100
AcDbLine
 10
84.63571570225479
 20
33.33915680194448
 11
83.8562257654885
 21
33.17772992313512
  0
LINE
  5
568
100
AcDbEntity
  8
larger
  6
ByLayer
 62
    7
370
   -1
100
AcDbLine
 10
83.8562257654885
 20
33.17772992313512
 11
83.07954364412743
 21
33.00359449459193
  0
LINE
  5
569
100
AcDbEntity
  8
larger
  6
ByLayer
 62
    7
370
   -1
100
AcDbLine
 10
83.07954364412743
 20
33.00359449459193
 11
82.30587217963803
 21
32.81660363296358
  0
LINE
  5
56A
100
AcDbEntity
  8
larger
  6
ByLayer
 62
    7
370
   -1
100
AcDbLine
 10
82.30587217963803
 20
32.81660363296358
 11
81.53541421348677
 21
32.61661045489873
  0
LINE
  5
56B
100
AcDbEntity
  8
larger
  6
ByLayer
 62
    7
370
   -1
100
AcDbLine
 10
81.53541421348677
 20
32.61661045489873
 11
80.76837258714016
 21
32.40346807704601
  0
LINE
  5
56C
100
AcDbEntity
  8
larger
  6
ByLayer
 62
    7
370
   -1
100
AcDbLine
 10
80.76837258714016
 20
32.40346807704601
 11
80.00495014206467
 21
32.17702961605411
  0
LINE
  5
56D
100
AcDbEntity
  8
larger
  6
ByLayer
 62
    7
370
   -1
100
AcDbLine
 10
80.00495014206467
 20
32.17702961605411
 11
79.24534971972678
 21
31.93714818857164
  0
LINE
  5
56E
100
AcDbEntity
  8
larger
  6
ByLayer
 62
    7
370
   -1
100
AcDbLine
 10
79.24534971972678
 20
31.93714818857164
 11
78.48977416159299
 21
31.68367691124729
  0
LINE
  5
56F
100
AcDbEntity
  8
larger
  6
ByLayer
 62
    7
370
   -1
100
AcDbLine
 10
78.48977416159299
 20
31.68367691124729
 11
77.73842630912975
 21
31.41646890072969
  0
LINE
  5
570
100
AcDbEntity
  8
larger
  6
ByLayer
 62
    7
370
   -1
100
AcDbLine
 10
77.73842630912975
 20
31.41646890072969
 11
76.99150900380357
 21
31.13537727366748
  0
LINE
  5
571
100
AcDbEntity
  8
larger
  6
ByLayer
 62
    7
370
   -1
100
AcDbLine
 10
76.99150900380357
 20
31.13537727366748
 11
76.71526891896681
 21
31.01232857863483
  0
LINE
  5
572
100
AcDbEntity
  8
larger
  6
ByLayer
 62
    7
370
   -1
100
AcDbLine
 10
76.71526891896681
 20
31.01232857863483
 11
76.43538234006054
 21
30.88812560675897
  0
LINE
  5
573
100
AcDbEntity
  8
larger
  6
ByLayer
 62
    7
370
   -1
100
AcDbLine
 10
76.43538234006054
 20
30.88812560675897
 11
76.15254498720057
 21
30.76239466129241
  0
LINE
  5
574
100
AcDbEntity
  8
larger
  6
ByLayer
 62
    7
370
   -1
100
AcDbLine
 10
76.15254498720057
 20
30.76239466129241
 11
75.86745258050259
 21
30.6347620454877
  0
LINE
  5
575
100
AcDbEntity
  8
larger
  6
ByLayer
 62
    7
370
   -1
100
AcDbLine
 10
75.86745258050259
 20
30.6347620454877
 11
75.5808008400823
 21
30.50485406259737
  0
LINE
  5
576
100
AcDbEntity
  8
larger
  6
ByLayer
 62
    7
370
   -1
100
AcDbLine
 10
75.5808008400823
 20
30.50485406259737
 11
75.29328548605551
 21
30.37229701587393
  0
LINE
  5
577
100
AcDbEntity
  8
larger
  6
ByLayer
 62
    7
370
   -1
100
AcDbLine
 10
75.29328548605551
 20
30.37229701587393
 11
75.00560223853796
 21
30.23671720856991
  0
LINE
  5
578
100
AcDbEntity
  8
larger
  6
ByLayer
 62
    7
370
   -1
100
AcDbLine
 10
75.00560223853796
 20
30.23671720856991
 11
74.71844681764533
 21
30.09774094393784
  0
LINE
  5
579
100
AcDbEntity
  8
larger
  6
ByLayer
 62
    7
370
   -1
100
AcDbLine
 10
74.71844681764533
 20
30.09774094393784
 11
74.43251494349342
 21
29.95499452523023
  0
LINE
  5
57A
100
AcDbEntity
  8
larger
  6
ByLayer
 62
    7
370
   -1
100
AcDbLine
 10
74.43251494349342
 20
29.95499452523023
 11
74.14850233619792
 21
29.80810425569964
  0
LINE
  5
57B
100
AcDbEntity
  8
larger
  6
ByLayer
 62
    7
370
   -1
100
AcDbLine
 10
74.14850233619792
 20
29.80810425569964
 11
73.8671047158746
 21
29.65669643859857
  0
LINE
  5
57C
100
AcDbEntity
  8
larger
  6
ByLayer
 62
    7
370
   -1
100
AcDbLine
 10
73.8671047158746
 20
29.65669643859857
 11
73.58901780263918
 21
29.50039737717955
  0
LINE
  5
57D
100
AcDbEntity
  8
larger
  6
ByLayer
 62
    7
370
   -1
100
AcDbLine
 10
73.58901780263918
 20
29.50039737717955
 11
73.31493731660744
 21
29.33883337469512
  0
LINE
  5
57E
100
AcDbEntity
  8
larger
  6
ByLayer
 62
    7
370
   -1
100
AcDbLine
 10
73.31493731660744
 20
29.33883337469512
 11
73.04555897789507
 21
29.17163073439778
  0
LINE
  5
57F
100
AcDbEntity
  8
larger
  6
ByLayer
 62
    7
370
   -1
100
AcDbLine
 10
73.04555897789507
 20
29.17163073439778
 11
72.78157850661785
 21
28.99841575954007
  0
LINE
  5
580
100
AcDbEntity
  8
larger
  6
ByLayer
 62
    7
370
   -1
100
AcDbLine
 10
72.78157850661785
 20
28.99841575954007
 11
72.52369162289148
 21
28.81881475337452
  0
LINE
  5
581
100
AcDbEntity
  8
larger
  6
ByLayer
 62
    7
370
   -1
100
AcDbLine
 10
72.52369162289148
 20
28.81881475337452
 11
72.27259404683173
 21
28.63245401915364
  0
LINE
  5
582
100
AcDbEntity
  8
larger
  6
ByLayer
 62
    7
370
   -1
100
AcDbLine
 10
72.27259404683173
 20
28.63245401915364
 11
72.02898149855433
 21
28.43895986012997
  0
LINE
  5
583
100
AcDbEntity
  8
larger
  6
ByLayer
 62
    7
370
   -1
100
AcDbLine
 10
72.02898149855433
 20
28.43895986012997
 11
71.79354969817503
 21
28.23795857955604
  0
LINE
  5
584
100
AcDbEntity
  8
larger
  6
ByLayer
 62
    7
370
   -1
100
AcDbLine
 10
71.79354969817503
 20
28.23795857955604
 11
71.56699436580955
 21
28.02907648068438
  0
LINE
  5
585
100
AcDbEntity
  8
larger
  6
ByLayer
 62
    7
370
   -1
100
AcDbLine
 10
71.56699436580955
 20
28.02907648068438
 11
71.35001122157362
 21
27.81193986676748
  0
LINE
  5
586
100
AcDbEntity
  8
larger
  6
ByLayer
 62
    7
370
   -1
100
AcDbLine
 10
71.35001122157362
 20
27.81193986676748
 11
71.14329598558302
 21
27.58617504105791
  0
LINE
  5
587
100
AcDbEntity
  8
larger
  6
ByLayer
 62
    7
370
   -1
100
AcDbLine
 10
71.14329598558302
 20
27.58617504105791
 11
70.94754437795348
 21
27.35140830680817
  0
LINE
  5
588
100
AcDbEntity
  8
larger
  6
ByLayer
 62
    7
370
   -1
100
AcDbLine
 10
70.94754437795348
 20
27.35140830680817
 11
70.76345211880071
 21
27.10726596727079
  0
LINE
  5
589
100
AcDbEntity
  8
larger
  6
ByLayer
 62
    7
370
   -1
100
AcDbLine
 10
70.76345211880071
 20
27.10726596727079
 11
70.59171492824048
 21
26.8533743256983
  0
LINE
  5
58A
100
AcDbEntity
  8
larger
  6
ByLayer
 62
    7
370
   -1
100
AcDbLine
 10
70.59171492824048
 20
26.8533743256983
 11
70.43302852638851
 21
26.58935968534323
  0
LINE
  5
58B
100
AcDbEntity
  8
larger
  6
ByLayer
 62
    7
370
   -1
100
AcDbLine
 10
70.43302852638851
 20
26.58935968534323
 11
70.28808863336056
 21
26.31484834945811
  0
LINE
  5
58C
100
AcDbEntity
  8
larger
  6
ByLayer
 62
    7
370
   -1
100
AcDbLine
 10
70.28808863336056
 20
26.31484834945811
 11
70.15759096927232
 21
26.02946662129543
  0
LINE
  5
58D
100
AcDbEntity
  8
larger
  6
ByLayer
 62
    7
370
   -1
100
AcDbLine
 10
70.15759096927232
 20
26.02946662129543
 11
70.04223125423961
 21
25.73284080410776
  0
LINE
  5
58E
100
AcDbEntity
  8
larger
  6
ByLayer
 62
    7
370
   -1
100
AcDbLine
 10
70.04223125423961
 20
25.73284080410776
 11
69.9427052083781
 21
25.42459720114761
  0
LINE
  5
58F
100
AcDbEntity
  8
larger
  6
ByLayer
 62
    7
370
   -1
100
AcDbLine
 10
69.9427052083781
 20
25.42459720114761
 11
69.85970855180358
 21
25.10436211566748
  0
LINE
  5
590
100
AcDbEntity
  8
larger
  6
ByLayer
 62
    7
370
   -1
100
AcDbLine
 10
69.85970855180358
 20
25.10436211566748
 11
69.80604815311247
 21
24.54236076466531
  0
LINE
  5
591
100
AcDbEntity
  8
larger
  6
ByLayer
 62
    7
370
   -1
100
AcDbLine
 10
69.80604815311247
 20
24.54236076466531
 11
69.7698232734591
 21
23.98147103077179
  0
LINE
  5
592
100
AcDbEntity
  8
larger
  6
ByLayer
 62
    7
370
   -1
100
AcDbLine
 10
69.7698232734591
 20
23.98147103077179
 11
69.75042427418288
 21
23.42172618865645
  0
LINE
  5
593
100
AcDbEntity
  8
larger
  6
ByLayer
 62
    7
370
   -1
100
AcDbLine
 10
69.75042427418288
 20
23.42172618865645
 11
69.74724151662326
 21
22.86315951298883
  0
LINE
  5
594
100
AcDbEntity
  8
larger
  6
ByLayer
 62
    7
370
   -1
100
AcDbLine
 10
69.74724151662326
 20
22.86315951298883
 11
69.75966536211978
 21
22.30580427843845
  0
LINE
  5
595
100
AcDbEntity
  8
larger
  6
ByLayer
 62
    7
370
   -1
100
AcDbLine
 10
69.75966536211978
 20
22.30580427843845
 11
69.78708617201181
 21
21.74969375967487
  0
LINE
  5
596
100
AcDbEntity
  8
larger
  6
ByLayer
 62
    7
370
   -1
100
AcDbLine
 10
69.78708617201181
 20
21.74969375967487
 11
69.82889430763888
 21
21.19486123136759
  0
LINE
  5
597
100
AcDbEntity
  8
larger
  6
ByLayer
 62
    7
370
   -1
100
AcDbLine
 10
69.82889430763888
 20
21.19486123136759
 11
69.88448013034044
 21
20.64133996818617
  0
LINE
  5
598
100
AcDbEntity
  8
larger
  6
ByLayer
 62
    7
370
   -1
100
AcDbLine
 10
69.88448013034044
 20
20.64133996818617
 11
69.95323400145594
 21
20.08916324480011
  0
LINE
  5
599
100
AcDbEntity
  8
larger
  6
ByLayer
 62
    7
370
   -1
100
AcDbLine
 10
69.95323400145594
 20
20.08916324480011
 11
70.03454628232487
 21
19.53836433587896
  0
LINE
  5
59A
100
AcDbEntity
  8
larger
  6
ByLayer
 62
    7
370
   -1
100
AcDbLine
 10
70.03454628232487
 20
19.53836433587896
 11
70.12780733428666
 21
18.98897651609225
  0
LINE
  5
59B
100
AcDbEntity
  8
larger
  6
ByLayer
 62
    7
370
   -1
100
AcDbLine
 10
70.12780733428666
 20
18.98897651609225
 11
70.23240751868082
 21
18.4410330601095
  0
LINE
  5
59C
100
AcDbEntity
  8
larger
  6
ByLayer
 62
    7
370
   -1
100
AcDbLine
 10
70.23240751868082
 20
18.4410330601095
 11
70.34773719684677
 21
17.89456724260025
  0
LINE
  5
59D
100
AcDbEntity
  8
larger
  6
ByLayer
 62
    7
370
   -1
100
AcDbLine
 10
70.34773719684677
 20
17.89456724260025
 11
70.473186730124
 21
17.34961233823404
  0
LINE
  5
59E
100
AcDbEntity
  8
larger
  6
ByLayer
 62
    7
370
   -1
100
AcDbLine
 10
70.473186730124
 20
17.34961233823404
 11
70.60814647985197
 21
16.80620162168039
  0
LINE
  5
59F
100
AcDbEntity
  8
larger
  6
ByLayer
 62
    7
370
   -1
100
AcDbLine
 10
70.60814647985197
 20
16.80620162168039
 11
70.75200680737015
 21
16.26436836760881
  0
LINE
  5
5A0
100
AcDbEntity
  8
larger
  6
ByLayer
 62
    7
370
   -1
100
AcDbLine
 10
70.75200680737015
 20
16.26436836760881
 11
70.90415807401799
 21
15.72414585068888
  0
LINE
  5
5A1
100
AcDbEntity
  8
larger
  6
ByLayer
 62
    7
370
   -1
100
AcDbLine
 10
70.90415807401799
 20
15.72414585068888
 11
71.06399064113496
 21
15.18556734559008
  0
LINE
  5
5A2
100
AcDbEntity
  8
larger
  6
ByLayer
 62
    7
370
   -1
100
AcDbLine
 10
71.06399064113496
 20
15.18556734559008
 11
71.23089487006055
 21
14.64866612698198
  0
LINE
  5
5A3
100
AcDbEntity
  8
larger
  6
ByLayer
 62
    7
370
   -1
100
AcDbLine
 10
71.23089487006055
 20
14.64866612698198
 11
71.4042611221342
 21
14.11347546953409
  0
LINE
  5
5A4
100
AcDbEntity
  8
larger
  6
ByLayer
 62
    7
370
   -1
100
AcDbLine
 10
71.4042611221342
 20
14.11347546953409
 11
71.58347975869539
 21
13.58002864791595
  0
LINE
  5
5A5
100
AcDbEntity
  8
larger
  6
ByLayer
 62
    7
370
   -1
100
AcDbLine
 10
71.58347975869539
 20
13.58002864791595
 11
71.76794114108355
 21
13.04835893679709
  0
LINE
  5
5A6
100
AcDbEntity
  8
larger
  6
ByLayer
 62
    7
370
   -1
100
AcDbLine
 10
71.76794114108355
 20
13.04835893679709
 11
71.95703563063817
 21
12.51849961084705
  0
LINE
  5
5A7
100
AcDbEntity
  8
larger
  6
ByLayer
 62
    7
370
   -1
100
AcDbLine
 10
71.95703563063817
 20
12.51849961084705
 11
72.15015358869873
 21
11.99048394473532
  0
LINE
  5
5A8
100
AcDbEntity
  8
larger
  6
ByLayer
 62
    7
370
   -1
100
AcDbLine
 10
72.15015358869873
 20
11.99048394473532
 11
72.34668537660468
 21
11.4643452131315
  0
LINE
  5
5A9
100
AcDbEntity
  8
larger
  6
ByLayer
 62
    7
370
   -1
100
AcDbLine
 10
72.34668537660468
 20
11.4643452131315
 11
72.54602135569547
 21
10.94011669070506
  0
LINE
  5
5AA
100
AcDbEntity
  8
larger
  6
ByLayer
 62
    7
370
   -1
100
AcDbLine
 10
72.54602135569547
 20
10.94011669070506
 11
72.74755188731058
 21
10.41783165212556
  0
LINE
  5
5AB
100
AcDbEntity
  8
larger
  6
ByLayer
 62
    7
370
   -1
100
AcDbLine
 10
72.74755188731058
 20
10.41783165212556
 11
72.95066733278949
 21
9.897523372062505
  0
LINE
  5
5AC
100
AcDbEntity
  8
larger
  6
ByLayer
 62
    7
370
   -1
100
AcDbLine
 10
72.95066733278949
 20
9.897523372062505
 11
73.15475805347165
 21
9.379225125185471
  0
LINE
  5
5AD
100
AcDbEntity
  8
larger
  6
ByLayer
 62
    7
370
   -1
100
AcDbLine
 10
73.15475805347165
 20
9.379225125185471
 11
73.35921441069651
 21
8.862970186163958
  0
LINE
  5
5AE
100
AcDbEntity
  8
larger
  6
ByLayer
 62
    7
370
   -1
100
AcDbLine
 10
73.35921441069651
 20
8.862970186163958
 11
73.56342676580356
 21
8.348791829667494
  0
LINE
  5
5AF
100
AcDbEntity
  8
larger
  6
ByLayer
 62
    7
370
   -1
100
AcDbLine
 10
73.56342676580356
 20
8.348791829667494
 11
73.76049076207366
 21
7.913691156401731
  0
LINE
  5
5B0
100
AcDbEntity
  8
larger
  6
ByLayer
 62
    7
370
   -1
100
AcDbLine
 10
73.76049076207366
 20
7.913691156401731
 11
73.96716545357505
 21
7.480863233048236
  0
LINE
  5
5B1
100
AcDbEntity
  8
larger
  6
ByLayer
 62
    7
370
   -1
100
AcDbLine
 10
73.96716545357505
 20
7.480863233048236
 11
74.18343028582834
 21
7.050862666788763
  0
LINE
  5
5B2
100
AcDbEntity
  8
larger
  6
ByLayer
 62
    7
370
   -1
100
AcDbLine
 10
74.18343028582834
 20
7.050862666788763
 11
74.40926470435413
 21
6.624244064805087
  0
LINE
  5
5B3
100
AcDbEntity
  8
larger
  6
ByLayer
 62
    7
370
   -1
100
AcDbLine
 10
74.40926470435413
 20
6.624244064805087
 11
74.64464815467302
 21
6.20156203427894
  0
LINE
  5
5B4
100
AcDbEntity
  8
larger
  6
ByLayer
 62
    7
370
   -1
100
AcDbLine
 10
74.64464815467302
 20
6.20156203427894
 11
74.88956008230559
 21
5.783371182392138
  0
LINE
  5
5B5
100
AcDbEntity
  8
larger
  6
ByLayer
 62
    7
370
   -1
100
AcDbLine
 10
74.88956008230559
 20
5.783371182392138
 11
75.14397993277245
 21
5.370226116326414
  0
LINE
  5
5B6
100
AcDbEntity
  8
larger
  6
ByLayer
 62
    7
370
   -1
100
AcDbLine
 10
75.14397993277245
 20
5.370226116326414
 11
75.40788715159418
 21
4.962681443263536
  0
LINE
  5
5B7
100
AcDbEntity
  8
larger
  6
ByLayer
 62
    7
370
   -1
100
AcDbLine
 10
75.40788715159418
 20
4.962681443263536
 11
75.68126118429137
 21
4.561291770385294
  0
LINE
  5
5B8
100
AcDbEntity
  8
larger
  6
ByLayer
 62
    7
370
   -1
100
AcDbLine
 10
75.68126118429137
 20
4.561291770385294
 11
75.96408147638462
 21
4.166611704873416
  0
LINE
  5
5B9
100
AcDbEntity
  8
larger
  6
ByLayer
 62
    7
370
   -1
100
AcDbLine
 10
75.96408147638462
 20
4.166611704873416
 11
76.25632747339451
 21
3.779195853909709
  0
LINE
  5
5BA
100
AcDbEntity
  8
larger
  6
ByLayer
 62
    7
370
   -1
100
AcDbLine
 10
76.25632747339451
 20
3.779195853909709
 11
76.55797862084168
 21
3.399598824675918
  0
LINE
  5
5BB
100
AcDbEntity
  8
larger
  6
ByLayer
 62
    7
370
   -1
100
AcDbLine
 10
76.55797862084168
 20
3.399598824675918
 11
76.86901436424665
 21
3.028375224353802
  0
LINE
  5
5BC
100
AcDbEntity
  8
larger
  6
ByLayer
 62
    7
370
   -1
100
AcDbLine
 10
76.86901436424665
 20
3.028375224353802
 11
77.18941414913009
 21
2.666079660125156
  0
LINE
  5
5BD
100
AcDbEntity
  8
larger
  6
ByLayer
 62
    7
370
   -1
100
AcDbLine
 10
77.18941414913009
 20
2.666079660125156
 11
77.51915742101252
 21
2.313266739171699
  0
LINE
  5
5BE
100
AcDbEntity
  8
larger
  6
ByLayer
 62
    7
370
   -1
100
AcDbLine
 10
77.51915742101252
 20
2.313266739171699
 11
77.85822362541458
 21
1.970491068675237
  0
LINE
  5
5BF
100
AcDbEntity
  8
larger
  6
ByLayer
 62
    7
370
   -1
100
AcDbLine
 10
77.85822362541458
 20
1.970491068675237
 11
78.20659220785686
 21
1.638307255817534
  0
LINE
  5
5C0
100
AcDbEntity
  8
larger
  6
ByLayer
 62
    7
370
   -1
100
AcDbLine
 10
78.20659220785686
 20
1.638307255817534
 11
78.56424261385996
 21
1.317269907780345
  0
LINE
  5
5C1
100
AcDbEntity
  8
larger
  6
ByLayer
 62
    7
370
   -1
100
AcDbLine
 10
78.56424261385996
 20
1.317269907780345
 11
78.93115428894446
 21
1.007933631745441
  0
LINE
  5
5C2
100
AcDbEntity
  8
larger
  6
ByLayer
 62
    7
370
   -1
100
AcDbLine
 10
78.93115428894446
 20
1.007933631745441
 11
79.30730667863092
 21
0.7108530348945798
  0
LINE
  5
5C3
100
AcDbEntity
  8
larger
  6
ByLayer
 62
    7
370
   -1
100
AcDbLine
 10
79.30730667863092
 20
0.7108530348945798
 11
79.69267922844
 21
0.4265827244095171
  0
LINE
  5
5C4
100
AcDbEntity
  8
larger
  6
ByLayer
 62
    7
370
   -1
100
AcDbLine
 10
79.69267922844
 20
0.4265827244095171
 11
80.08725138389224
 21
0.1556773074720574
  0
LINE
  5
5C5
100
AcDbEntity
  8
larger
  6
ByLayer
 62
    7
370
   -1
100
AcDbLine
 10
80.08725138389224
 20
0.1556773074720574
 11
80.49100259050827
 21
-0.1013086087360549
  0
LINE
  5
5C6
100
AcDbEntity
  8
larger
  6
ByLayer
 62
    7
370
   -1
100
AcDbLine
 10
80.49100259050827
 20
-0.1013086087360549
 11
80.90391229380866
 21
-0.3438204170330579
  0
LINE
  5
5C7
100
AcDbEntity
  8
larger
  6
ByLayer
 62
    7
370
   -1
100
AcDbLine
 10
80.90391229380866
 20
-0.3438204170330579
 11
81.32595993931402
 21
-0.5713035102371791
  0
LINE
  5
5C8
100
AcDbEntity
  8
larger
  6
ByLayer
 62
    7
370
   -1
100
AcDbLine
 10
81.32595993931402
 20
-0.5713035102371791
 11
81.75712497254491
 21
-0.7832032811666565
  0
LINE
  5
5C9
100
AcDbEntity
  8
larger
  6
ByLayer
 62
    7
370
   -1
100
AcDbLine
 10
81.75712497254491
 20
-0.7832032811666565
 11
82.19738683902197
 21
-0.9789651226397105
  0
LINE
  5
5CA
100
AcDbEntity
  8
larger
  6
ByLayer
 62
    7
370
   -1
100
AcDbLine
 10
82.19738683902197
 20
-0.9789651226397105
 11
82.64672498426577
 21
-1.158034427474593
  0
LINE
  5
5CB
100
AcDbEntity
  8
larger
  6
ByLayer
 62
    7
370
   -1
100
AcDbLine
 10
82.64672498426577
 20
-1.158034427474593
 11
83.10511885379692
 21
-1.319856588489532
  0
LINE
  5
5CC
100
AcDbEntity
  8
larger
  6
ByLayer
 62
    7
370
   -1
100
AcDbLine
 10
83.10511885379692
 20
-1.319856588489532
 11
83.57254789313596
 21
-1.463876998502773
  0
LINE
  5
5CD
100
AcDbEntity
  8
larger
  6
ByLayer
 62
    7
370
   -1
100
AcDbLine
 10
83.57254789313596
 20
-1.463876998502773
 11
84.04899154780357
 21
-1.589541050332524
  0
LINE
  5
5CE
100
AcDbEntity
  8
larger
  6
ByLayer
 62
    7
370
   -1
100
AcDbLine
 10
84.04899154780357
 20
-1.589541050332524
 11
84.80528948056951
 21
-1.820642694286601
  0
LINE
  5
5CF
100
AcDbEntity
  8
larger
  6
ByLayer
 62
    7
370
   -1
100
AcDbLine
 10
84.80528948056951
 20
-1.820642694286601
 11
85.56606440716311
 21
-2.038775989536433
  0
LINE
  5
5D0
100
AcDbEntity
  8
larger
  6
ByLayer
 62
    7
370
   -1
100
AcDbLine
 10
85.56606440716311
 20
-2.038775989536433
 11
86.33102847106032
 21
-2.243826222711824
  0
LINE
  5
5D1
100
AcDbEntity
  8
larger
  6
ByLayer
 62
    7
370
   -1
100
AcDbLine
 10
86.33102847106032
 20
-2.243826222711824
 11
87.0998938157371
 21
-2.435678680442553
  0
LINE
  5
5D2
100
AcDbEntity
  8
larger
  6
ByLayer
 62
    7
370
   -1
100
AcDbLine
 10
87.0998938157371
 20
-2.435678680442553
 11
87.87237258466941
 21
-2.614218649358396
  0
LINE
  5
5D3
100
AcDbEntity
  8
larger
  6
ByLayer
 62
    7
370
   -1
100
AcDbLine
 10
87.87237258466941
 20
-2.614218649358396
 11
88.64817692133315
 21
-2.77933141608916
  0
LINE
  5
5D4
100
AcDbEntity
  8
larger
  6
ByLayer
 62
    7
370
   -1
100
AcDbLine
 10
88.64817692133315
 20
-2.77933141608916
 11
89.42701896920433
 21
-2.93090226726461
  0
LINE
  5
5D5
100
AcDbEntity
  8
larger
  6
ByLayer
 62
    7
370
   -1
100
AcDbLine
 10
89.42701896920433
 20
-2.93090226726461
 11
90.20861087175885
 21
-3.06881648951455
  0
LINE
  5
5D6
100
AcDbEntity
  8
larger
  6
ByLayer
 62
    7
370
   -1
100
AcDbLine
 10
90.20861087175885
 20
-3.06881648951455
 11
90.99266477247269
 21
-3.19295936946877
  0
LINE
  5
5D7
100
AcDbEntity
  8
larger
  6
ByLayer
 62
    7
370
   -1
100
AcDbLine
 10
90.99266477247269
 20
-3.19295936946877
 11
91.77889281482179
 21
-3.303216193757024
  0
LINE
  5
5D8
100
AcDbEntity
  8
larger
  6
ByLayer
 62
    7
370
   -1
100
AcDbLine
 10
91.77889281482179
 20
-3.303216193757024
 11
92.56700714228209
 21
-3.399472249009147
  0
LINE
  5
5D9
100
AcDbEntity
  8
larger
  6
ByLayer
 62
    7
370
   -1
100
AcDbLine
 10
92.56700714228209
 20
-3.399472249009147
 11
93.35671989832956
 21
-3.481612821854906
  0
LINE
  5
5DA
100
AcDbEntity
  8
larger
  6
ByLayer
 62
    7
370
   -1
100
AcDbLine
 10
93.35671989832956
 20
-3.481612821854906
 11
94.14774322644013
 21
-3.549523198924081
  0
LINE
  5
5DB
100
AcDbEntity
  8
larger
  6
ByLayer
 62
    7
370
   -1
100
AcDbLine
 10
94.14774322644013
 20
-3.549523198924081
 11
94.93978927008976
 21
-3.603088666846489
  0
LINE
  5
5DC
100
AcDbEntity
  8
larger
  6
ByLayer
 62
    7
370
   -1
100
AcDbLine
 10
94.93978927008976
 20
-3.603088666846489
 11
95.73257017275438
 21
-3.642194512251876
  0
LINE
  5
5DD
100
AcDbEntity
  8
larger
  6
ByLayer
 62
    7
370
   -1
100
AcDbLine
 10
95.73257017275438
 20
-3.642194512251876
 11
96.52579807790998
 21
-3.666726021770046
  0
LINE
  5
5DE
100
AcDbEntity
  8
larger
  6
ByLayer
 62
    7
370
   -1
100
AcDbLine
 10
96.52579807790998
 20
-3.666726021770046
 11
97.31918512903246
 21
-3.676568482030802
  0
LINE
  5
5DF
100
AcDbEntity
  8
larger
  6
ByLayer
 62
    7
370
   -1
100
AcDbLine
 10
97.31918512903246
 20
-3.676568482030802
 11
98.11244346959781
 21
-3.671607179663905
  0
LINE
  5
5E0
100
AcDbEntity
  8
larger
  6
ByLayer
 62
    7
370
   -1
100
AcDbLine
 10
98.11244346959781
 20
-3.671607179663905
 11
98.90528524308193
 21
-3.651727401299173
  0
LINE
  5
5E1
100
AcDbEntity
  8
larger
  6
ByLayer
 62
    7
370
   -1
100
AcDbLine
 10
98.90528524308193
 20
-3.651727401299173
 11
99.69742259296082
 21
-3.616814433566354
  0
LINE
  5
5E2
100
AcDbEntity
  8
larger
  6
ByLayer
 62
    7
370
   -1
100
AcDbLine
 10
99.69742259296082
 20
-3.616814433566354
 11
100.4885676627104
 21
-3.566753563095279
  0
LINE
  5
5E3
100
AcDbEntity
  8
larger
  6
ByLayer
 62
    7
370
   -1
100
AcDbLine
 10
100.4885676627104
 20
-3.566753563095279
 11
101.2784325958066
 21
-3.501430076515703
  0
LINE
  5
5E4
100
AcDbEntity
  8
larger
  6
ByLayer
 62
    7
370
   -1
100
AcDbLine
 10
101.2784325958066
 20
-3.501430076515703
 11
102.0667295357255
 21
-3.420729260457428
  0
LINE
  5
5E5
100
AcDbEntity
  8
larger
  6
ByLayer
 62
    7
370
   -1
100
AcDbLine
 10
102.0667295357255
 20
-3.420729260457428
 11
102.8531706259429
 21
-3.324536401550258
  0
LINE
  5
5E6
100
AcDbEntity
  8
larger
  6
ByLayer
 62
    7
370
   -1
100
AcDbLine
 10
102.8531706259429
 20
-3.324536401550258
 11
103.6374680099347
 21
-3.212736786423957
  0
LINE
  5
5E7
100
AcDbEntity
  8
larger
  6
ByLayer
 62
    7
370
   -1
100
AcDbLine
 10
103.6374680099347
 20
-3.212736786423957
 11
104.419333831177
 21
-3.085215701708304
  0
LINE
  5
5E8
100
AcDbEntity
  8
larger
  6
ByLayer
 62
    7
370
   -1
100
AcDbLine
 10
104.419333831177
 20
-3.085215701708304
 11
105.1984802331458
 21
-2.94185843403309
  0
LINE
  5
5E9
100
AcDbEntity
  8
larger
  6
ByLayer
 62
    7
370
   -1
100
AcDbLine
 10
105.1984802331458
 20
-2.94185843403309
 11
105.9746193593168
 21
-2.782550270028128
  0
LINE
  5
5EA
100
AcDbEntity
  8
larger
  6
ByLayer
 62
    7
370
   -1
100
AcDbLine
 10
105.9746193593168
 20
-2.782550270028128
 11
106.7474633531662
 21
-2.607176496323191
  0
LINE
  5
5EB
100
AcDbEntity
  8
larger
  6
ByLayer
 62
    7
370
   -1
100
AcDbLine
 10
106.7474633531662
 20
-2.607176496323191
 11
107.5167243581697
 21
-2.415622399548059
  0
LINE
  5
5EC
100
AcDbEntity
  8
larger
  6
ByLayer
 62
    7
370
   -1
100
AcDbLine
 10
107.5167243581697
 20
-2.415622399548059
 11
108.2821145178035
 21
-2.207773266332516
  0
LINE
  5
5ED
100
AcDbEntity
  8
larger
  6
ByLayer
 62
    7
370
   -1
100
AcDbLine
 10
108.2821145178035
 20
-2.207773266332516
 11
108.631801331418
 21
-2.100882519803228
  0
LINE
  5
5EE
100
AcDbEntity
  8
larger
  6
ByLayer
 62
    7
370
   -1
100
AcDbLine
 10
108.631801331418
 20
-2.100882519803228
 11
108.978726129204
 21
-1.984978777644521
  0
LINE
  5
5EF
100
AcDbEntity
  8
larger
  6
ByLayer
 62
    7
370
   -1
100
AcDbLine
 10
108.978726129204
 20
-1.984978777644521
 11
109.322612323608
 21
-1.860147680967874
  0
LINE
  5
5F0
100
AcDbEntity
  8
larger
  6
ByLayer
 62
    7
370
   -1
100
AcDbLine
 10
109.322612323608
 20
-1.860147680967874
 11
109.6631833270762
 21
-1.726474870884768
  0
LINE
  5
5F1
100
AcDbEntity
  8
larger
  6
ByLayer
 62
    7
370
   -1
100
AcDbLine
 10
109.6631833270762
 20
-1.726474870884768
 11
110.0001625520548
 21
-1.58404598850667
  0
LINE
  5
5F2
100
AcDbEntity
  8
larger
  6
ByLayer
 62
    7
370
   -1
100
AcDbLine
 10
110.0001625520548
 20
-1.58404598850667
 11
110.3332734109904
 21
-1.432946674945054
  0
LINE
  5
5F3
100
AcDbEntity
  8
larger
  6
ByLayer
 62
    7
370
   -1
100
AcDbLine
 10
110.3332734109904
 20
-1.432946674945054
 11
110.662239316329
 21
-1.273262571311395
  0
LINE
  5
5F4
100
AcDbEntity
  8
larger
  6
ByLayer
 62
    7
370
   -1
100
AcDbLine
 10
110.662239316329
 20
-1.273262571311395
 11
110.9867836805171
 21
-1.105079318717184
  0
LINE
  5
5F5
100
AcDbEntity
  8
larger
  6
ByLayer
 62
    7
370
   -1
100
AcDbLine
 10
110.9867836805171
 20
-1.105079318717184
 11
111.306629916001
 21
-0.9284825582738989
  0
LINE
  5
5F6
100
AcDbEntity
  8
larger
  6
ByLayer
 62
    7
370
   -1
100
AcDbLine
 10
111.306629916001
 20
-0.9284825582738989
 11
111.621501435227
 21
-0.7435579310930152
  0
LINE
  5
5F7
100
AcDbEntity
  8
larger
  6
ByLayer
 62
    7
370
   -1
100
AcDbLine
 10
111.621501435227
 20
-0.7435579310930152
 11
111.9311216506413
 21
-0.5503910782859904
  0
LINE
  5
5F8
100
AcDbEntity
  8
larger
  6
ByLayer
 62
    7
370
   -1
100
AcDbLine
 10
111.9311216506413
 20
-0.5503910782859904
 11
112.2352139746903
 21
-0.3490676409643143
  0
LINE
  5
5F9
100
AcDbEntity
  8
larger
  6
ByLayer
 62
    7
370
   -1
100
AcDbLine
 10
112.2352139746903
 20
-0.3490676409643143
 11
112.5335018198203
 21
-0.1396732602394657
  0
LINE
  5
5FA
100
AcDbEntity
  8
larger
  6
ByLayer
 62
    7
370
   -1
100
AcDbLine
 10
112.5335018198203
 20
-0.1396732602394657
 11
112.8257085984776
 21
0.07770642277708362
  0
LINE
  5
5FB
100
AcDbEntity
  8
larger
  6
ByLayer
 62
    7
370
   -1
100
AcDbLine
 10
112.8257085984776
 20
0.07770642277708362
 11
113.1115577231085
 21
0.3029857669738476
  0
LINE
  5
5FC
100
AcDbEntity
  8
larger
  6
ByLayer
 62
    7
370
   -1
100
AcDbLine
 10
113.1115577231085
 20
0.3029857669738476
 11
113.3907726061594
 21
0.5360791312393616
  0
LINE
  5
5FD
100
AcDbEntity
  8
larger
  6
ByLayer
 62
    7
370
   -1
100
AcDbLine
 10
113.3907726061594
 20
0.5360791312393616
 11
113.6630766600765
 21
0.7769008744621573
  0
LINE
  5
5FE
100
AcDbEntity
  8
larger
  6
ByLayer
 62
    7
370
   -1
100
AcDbLine
 10
113.6630766600765
 20
0.7769008744621573
 11
113.9281932973061
 21
1.025365355530738
  0
LINE
  5
5FF
100
AcDbEntity
  8
larger
  6
ByLayer
 62
    7
370
   -1
100
AcDbLine
 10
113.9281932973061
 20
1.025365355530738
 11
114.1858459302946
 21
1.281386933333629
  0
LINE
  5
600
100
AcDbEntity
  8
larger
  6
ByLayer
 62
    7
370
   -1
100
AcDbLine
 10
114.1858459302946
 20
1.281386933333629
 11
114.4357579714882
 21
1.544879966759357
  0
LINE
  5
601
100
AcDbEntity
  8
larger
  6
ByLayer
 62
    7
370
   -1
100
AcDbLine
 10
114.4357579714882
 20
1.544879966759357
 11
114.6776528333334
 21
1.815758814696457
  0
LINE
  5
602
100
AcDbEntity
  8
larger
  6
ByLayer
 62
    7
370
   -1
100
AcDbLine
 10
114.6776528333334
 20
1.815758814696457
 11
114.9112539282762
 21
2.093937836033422
  0
LINE
  5
603
100
AcDbEntity
  8
larger
  6
ByLayer
 62
    7
370
   -1
100
AcDbLine
 10
114.9112539282762
 20
2.093937836033422
 11
115.1362846687633
 21
2.379331389658821
  0
LINE
  5
604
100
AcDbEntity
  8
larger
  6
ByLayer
 62
    7
370
   -1
100
AcDbLine
 10
115.1362846687633
 20
2.379331389658821
 11
115.3524684672407
 21
2.671853834461148
  0
LINE
  5
605
100
AcDbEntity
  8
larger
  6
ByLayer
 62
    7
370
   -1
100
AcDbLine
 10
115.3524684672407
 20
2.671853834461148
 11
115.5595287361548
 21
2.971419529328928
  0
LINE
  5
606
100
AcDbEntity
  8
larger
  6
ByLayer
 62
    7
370
   -1
100
AcDbLine
 10
115.5595287361548
 20
2.971419529328928
 11
115.7571888879518
 21
3.277942833150684
  0
LINE
  5
607
100
AcDbEntity
  8
larger
  6
ByLayer
 62
    7
370
   -1
100
AcDbLine
 10
115.7571888879518
 20
3.277942833150684
 11
115.9451723350783
 21
3.591338104814943
  0
LINE
  5
608
100
AcDbEntity
  8
larger
  6
ByLayer
 62
    7
370
   -1
100
AcDbLine
 10
115.9451723350783
 20
3.591338104814943
 11
116.1232024899804
 21
3.911519703210228
  0
LINE
  5
609
100
AcDbEntity
  8
larger
  6
ByLayer
 62
    7
370
   -1
100
AcDbLine
 10
116.1232024899804
 20
3.911519703210228
 11
116.2910027651044
 21
4.238401987225053
  0
LINE
  5
60A
100
AcDbEntity
  8
larger
  6
ByLayer
 62
    7
370
   -1
100
AcDbLine
 10
116.2910027651044
 20
4.238401987225053
 11
116.4482965728967
 21
4.571899315747977
  0
LINE
  5
60B
100
AcDbEntity
  8
larger
  6
ByLayer
 62
    7
370
   -1
100
AcDbLine
 10
116.4482965728967
 20
4.571899315747977
 11
116.5948073258035
 21
4.911926047667489
  0
LINE
  5
60C
100
AcDbEntity
  8
larger
  6
ByLayer
 62
    7
370
   -1
100
AcDbLine
 10
116.5948073258035
 20
4.911926047667489
 11
116.8426243283263
 21
5.429502334728953
  0
LINE
  5
60D
100
AcDbEntity
  8
larger
  6
ByLayer
 62
    7
370
   -1
100
AcDbLine
 10
116.8426243283263
 20
5.429502334728953
 11
117.0789838263645
 21
5.951327115514012
  0
LINE
  5
60E
100
AcDbEntity
  8
larger
  6
ByLayer
 62
    7
370
   -1
100
AcDbLine
 10
117.0789838263645
 20
5.951327115514012
 11
117.3040637187842
 21
6.477225833939862
  0
LINE
  5
60F
100
AcDbEntity
  8
larger
  6
ByLayer
 62
    7
370
   -1
100
AcDbLine
 10
117.3040637187842
 20
6.477225833939862
 11
117.5180419044516
 21
7.007023933923607
  0
LINE
  5
610
100
AcDbEntity
  8
larger
  6
ByLayer
 62
    7
370
   -1
100
AcDbLine
 10
117.5180419044516
 20
7.007023933923607
 11
117.7210962822327
 21
7.540546859382435
  0
LINE
  5
611
100
AcDbEntity
  8
larger
  6
ByLayer
 62
    7
370
   -1
100
AcDbLine
 10
117.7210962822327
 20
7.540546859382435
 11
117.9134047509936
 21
8.077620054233494
  0
LINE
  5
612
100
AcDbEntity
  8
larger
  6
ByLayer
 62
    7
370
   -1
100
AcDbLine
 10
117.9134047509936
 20
8.077620054233494
 11
118.0951452096005
 21
8.618068962393954
  0
LINE
  5
613
100
AcDbEntity
  8
larger
  6
ByLayer
 62
    7
370
   -1
100
AcDbLine
 10
118.0951452096005
 20
8.618068962393954
 11
118.2664955569193
 21
9.161719027780943
  0
LINE
  5
614
100
AcDbEntity
  8
larger
  6
ByLayer
 62
    7
370
   -1
100
AcDbLine
 10
118.2664955569193
 20
9.161719027780943
 11
118.4276336918163
 21
9.708395694311641
  0
LINE
  5
615
100
AcDbEntity
  8
larger
  6
ByLayer
 62
    7
370
   -1
100
AcDbLine
 10
118.4276336918163
 20
9.708395694311641
 11
118.5787375131574
 21
10.25792440590319
  0
LINE
  5
616
100
AcDbEntity
  8
larger
  6
ByLayer
 62
    7
370
   -1
100
AcDbLine
 10
118.5787375131574
 20
10.25792440590319
 11
118.719984919809
 21
10.81013060647276
  0
LINE
  5
617
100
AcDbEntity
  8
larger
  6
ByLayer
 62
    7
370
   -1
100
AcDbLine
 10
118.719984919809
 20
10.81013060647276
 11
118.8515538106369
 21
11.3648397399375
  0
LINE
  5
618
100
AcDbEntity
  8
larger
  6
ByLayer
 62
    7
370
   -1
100
AcDbLine
 10
118.8515538106369
 20
11.3648397399375
 11
118.9736220845074
 21
11.92187725021455
  0
LINE
  5
619
100
AcDbEntity
  8
larger
  6
ByLayer
 62
    7
370
   -1
100
AcDbLine
 10
118.9736220845074
 20
11.92187725021455
 11
119.0863676402866
 21
12.48106858122112
  0
LINE
  5
61A
100
AcDbEntity
  8
larger
  6
ByLayer
 62
    7
370
   -1
100
AcDbLine
 10
119.0863676402866
 20
12.48106858122112
 11
119.1899683768404
 21
13.0422391768743
  0
LINE
  5
61B
100
AcDbEntity
  8
larger
  6
ByLayer
 62
    7
370
   -1
100
AcDbLine
 10
119.1899683768404
 20
13.0422391768743
 11
119.2846021930352
 21
13.60521448109126
  0
LINE
  5
61C
100
AcDbEntity
  8
larger
  6
ByLayer
 62
    7
370
   -1
100
AcDbLine
 10
119.2846021930352
 20
13.60521448109126
 11
119.3704469877368
 21
14.16981993778921
  0
LINE
  5
61D
100
AcDbEntity
  8
larger
  6
ByLayer
 62
    7
370
   -1
100
AcDbLine
 10
119.3704469877368
 20
14.16981993778921
 11
119.4476806598115
 21
14.73588099088524
  0
LINE
  5
61E
100
AcDbEntity
  8
larger
  6
ByLayer
 62
    7
370
   -1
100
AcDbLine
 10
119.4476806598115
 20
14.73588099088524
 11
119.5164811081252
 21
15.30322308429653
  0
LINE
  5
61F
100
AcDbEntity
  8
larger
  6
ByLayer
 62
    7
370
   -1
100
AcDbLine
 10
119.5164811081252
 20
15.30322308429653
 11
119.5770262315443
 21
15.87167166194024
  0
LINE
  5
620
100
AcDbEntity
  8
larger
  6
ByLayer
 62
    7
370
   -1
100
AcDbLine
 10
119.5770262315443
 20
15.87167166194024
 11
119.6294939289345
 21
16.44105216773353
  0
LINE
  5
621
100
AcDbEntity
  8
larger
  6
ByLayer
 62
    7
370
   -1
100
AcDbLine
 10
119.6294939289345
 20
16.44105216773353
 11
119.6740620991624
 21
17.01119004559356
  0
LINE
  5
622
100
AcDbEntity
  8
larger
  6
ByLayer
 62
    7
370
   -1
100
AcDbLine
 10
119.6740620991624
 20
17.01119004559356
 11
119.7109086410937
 21
17.58191073943748
  0
LINE
  5
623
100
AcDbEntity
  8
larger
  6
ByLayer
 62
    7
370
   -1
100
AcDbLine
 10
119.7109086410937
 20
17.58191073943748
 11
119.7402114535946
 21
18.15303969318244
  0
LINE
  5
624
100
AcDbEntity
  8
larger
  6
ByLayer
 62
    7
370
   -1
100
AcDbLine
 10
119.7402114535946
 20
18.15303969318244
 11
119.7621484355314
 21
18.7244023507456
  0
LINE
  5
625
100
AcDbEntity
  8
larger
  6
ByLayer
 62
    7
370
   -1
100
AcDbLine
 10
119.7621484355314
 20
18.7244023507456
 11
119.7768974857698
 21
19.29582415604411
  0
LINE
  5
626
100
AcDbEntity
  8
larger
  6
ByLayer
 62
    7
370
   -1
100
AcDbLine
 10
119.7768974857698
 20
19.29582415604411
 11
119.7846365031763
 21
19.86713055299513
  0
LINE
  5
627
100
AcDbEntity
  8
larger
  6
ByLayer
 62
    7
370
   -1
100
AcDbLine
 10
119.7846365031763
 20
19.86713055299513
 11
119.7855433866169
 21
20.43814698551581
  0
LINE
  5
628
100
AcDbEntity
  8
larger
  6
ByLayer
 62
    7
370
   -1
100
AcDbLine
 10
119.7855433866169
 20
20.43814698551581
 11
119.7797960349575
 21
21.00869889752334
  0
LINE
  5
629
100
AcDbEntity
  8
larger
  6
ByLayer
 62
    7
370
   -1
100
AcDbLine
 10
119.7797960349575
 20
21.00869889752334
 11
119.7675723470643
 21
21.57861173293484
  0
LINE
  5
62A
100
AcDbEntity
  8
larger
  6
ByLayer
 62
    7
370
   -1
100
AcDbLine
 10
119.7675723470643
 20
21.57861173293484
 11
119.7490502218036
 21
22.14771093566748
  0
LINE
  5
62B
100
AcDbEntity
  8
larger
  6
ByLayer
 62
    7
370
   -1
100
AcDbLine
 10
-1.824868721752594
 20
22.14771093566748
 11
-1.815679128185522
 21
22.51924722119902
  0
LINE
  5
62C
100
AcDbEntity
  8
larger
  6
ByLayer
 62
    7
370
   -1
100
AcDbLine
 10
-1.815679128185522
 20
22.51924722119902
 11
-1.792956678656822
 21
22.89042029782196
  0
LINE
  5
62D
100
AcDbEntity
  8
larger
  6
ByLayer
 62
    7
370
   -1
100
AcDbLine
 10
-1.792956678656822
 20
22.89042029782196
 11
-1.756850569279578
 21
23.26073472332073
  0
LINE
  5
62E
100
AcDbEntity
  8
larger
  6
ByLayer
 62
    7
370
   -1
100
AcDbLine
 10
-1.756850569279578
 20
23.26073472332073
 11
-1.707509996166962
 21
23.62969505547978
  0
LINE
  5
62F
100
AcDbEntity
  8
larger
  6
ByLayer
 62
    7
370
   -1
100
AcDbLine
 10
-1.707509996166962
 20
23.62969505547978
 11
-1.645084155432173
 21
23.99680585208351
  0
LINE
  5
630
100
AcDbEntity
  8
larger
  6
ByLayer
 62
    7
370
   -1
100
AcDbLine
 10
-1.645084155432173
 20
23.99680585208351
 11
-1.569722243188409
 21
24.36157167091639
  0
LINE
  5
631
100
AcDbEntity
  8
larger
  6
ByLayer
 62
    7
370
   -1
100
AcDbLine
 10
-1.569722243188409
 20
24.36157167091639
 11
-1.481573455548812
 21
24.72349706976282
  0
LINE
  5
632
100
AcDbEntity
  8
larger
  6
ByLayer
 62
    7
370
   -1
100
AcDbLine
 10
-1.481573455548812
 20
24.72349706976282
 11
-1.38078698862671
 21
25.08208660640724
  0
LINE
  5
633
100
AcDbEntity
  8
larger
  6
ByLayer
 62
    7
370
   -1
100
AcDbLine
 10
-1.38078698862671
 20
25.08208660640724
 11
-1.267512038535116
 21
25.43684483863409
  0
LINE
  5
634
100
AcDbEntity
  8
larger
  6
ByLayer
 62
    7
370
   -1
100
AcDbLine
 10
-1.267512038535116
 20
25.43684483863409
 11
-1.141897801387358
 21
25.78727632422778
  0
LINE
  5
635
100
AcDbEntity
  8
larger
  6
ByLayer
 62
    7
370
   -1
100
AcDbLine
 10
-1.141897801387358
 20
25.78727632422778
 11
-1.004093473296535
 21
26.13288562097278
  0
LINE
  5
636
100
AcDbEntity
  8
larger
  6
ByLayer
 62
    7
370
   -1
100
AcDbLine
 10
-1.004093473296535
 20
26.13288562097278
 11
-0.8542482503757896
 21
26.47317728665349
  0
LINE
  5
637
100
AcDbEntity
  8
larger
  6
ByLayer
 62
    7
370
   -1
100
AcDbLine
 10
-0.8542482503757896
 20
26.47317728665349
 11
-0.6925113287384335
 21
26.80765587905433
  0
LINE
  5
638
100
AcDbEntity
  8
larger
  6
ByLayer
 62
    7
370
   -1
100
AcDbLine
 10
-0.6925113287384335
 20
26.80765587905433
 11
-0.5190319044976945
 21
27.13582595595979
  0
LINE
  5
639
100
AcDbEntity
  8
larger
  6
ByLayer
 62
    7
370
   -1
100
AcDbLine
 10
-0.5190319044976945
 20
27.13582595595979
 11
-0.3339591737665728
 21
27.45719207515425
  0
LINE
  5
63A
100
AcDbEntity
  8
larger
  6
ByLayer
 62
    7
370
   -1
100
AcDbLine
 10
-0.3339591737665728
 20
27.45719207515425
 11
-0.1374423326584235
 21
27.77125879442215
  0
LINE
  5
63B
100
AcDbEntity
  8
larger
  6
ByLayer
 62
    7
370
   -1
100
AcDbLine
 10
-0.1374423326584235
 20
27.77125879442215
 11
0.07036942271366797
 21
28.07753067154792
  0
LINE
  5
63C
100
AcDbEntity
  8
larger
  6
ByLayer
 62
    7
370
   -1
100
AcDbLine
 10
0.07036942271366797
 20
28.07753067154792
 11
0.2893268962365312
 21
28.375512264316
  0
LINE
  5
63D
100
AcDbEntity
  8
larger
  6
ByLayer
 62
    7
370
   -1
100
AcDbLine
 10
0.2893268962365312
 20
28.375512264316
 11
0.5192808917968108
 21
28.66470813051082
  0
LINE
  5
63E
100
AcDbEntity
  8
larger
  6
ByLayer
 62
    7
370
   -1
100
AcDbLine
 10
0.5192808917968108
 20
28.66470813051082
 11
0.7600822132815352
 21
28.94462282791682
  0
LINE
  5
63F
100
AcDbEntity
  8
larger
  6
ByLayer
 62
    7
370
   -1
100
AcDbLine
 10
0.7600822132815352
 20
28.94462282791682
 11
1.011581664577392
 21
29.21476091431841
  0
LINE
  5
640
100
AcDbEntity
  8
larger
  6
ByLayer
 62
    7
370
   -1
100
AcDbLine
 10
1.011581664577392
 20
29.21476091431841
 11
1.273630049571096
 21
29.47462694750006
  0
LINE
  5
641
100
AcDbEntity
  8
larger
  6
ByLayer
 62
    7
370
   -1
100
AcDbLine
 10
1.273630049571096
 20
29.47462694750006
 11
1.546078172149677
 21
29.72372548524614
  0
LINE
  5
642
100
AcDbEntity
  8
larger
  6
ByLayer
 62
    7
370
   -1
100
AcDbLine
 10
1.546078172149677
 20
29.72372548524614
 11
1.828776836199836
 21
29.96156108534114
  0
LINE
  5
643
100
AcDbEntity
  8
larger
  6
ByLayer
 62
    7
370
   -1
100
AcDbLine
 10
1.828776836199836
 20
29.96156108534114
 11
2.121576845608359
 21
30.18763830556946
  0
LINE
  5
644
100
AcDbEntity
  8
larger
  6
ByLayer
 62
    7
370
   -1
100
AcDbLine
 10
2.121576845608359
 20
30.18763830556946
 11
2.42432900426212
 21
30.40146170371555
  0
LINE
  5
645
100
AcDbEntity
  8
larger
  6
ByLayer
 62
    7
370
   -1
100
AcDbLine
 10
2.42432900426212
 20
30.40146170371555
 11
2.736884116047889
 21
30.60253583756383
  0
LINE
  5
646
100
AcDbEntity
  8
larger
  6
ByLayer
 62
    7
370
   -1
100
AcDbLine
 10
2.736884116047889
 20
30.60253583756383
 11
3.059092984852555
 21
30.79036526489873
  0
LINE
  5
647
100
AcDbEntity
  8
larger
  6
ByLayer
 62
    7
370
   -1
100
AcDbLine
 10
3.059092984852555
 20
30.79036526489873
 11
3.390806414562803
 21
30.96445454350468
  0
LINE
  5
648
100
AcDbEntity
  8
larger
  6
ByLayer
 62
    7
370
   -1
100
AcDbLine
 10
3.390806414562803
 20
30.96445454350468
 11
3.731875209065493
 21
31.12430823116612
  0
LINE
  5
649
100
AcDbEntity
  8
larger
  6
ByLayer
 62
    7
370
   -1
100
AcDbLine
 10
3.731875209065493
 20
31.12430823116612
 11
4.08215017224741
 21
31.26943088566748
  0
LINE
  5
64A
100
AcDbEntity
  8
larger
  6
ByLayer
 62
    7
370
   -1
100
AcDbLine
 10
4.08215017224741
 20
31.26943088566748
 11
4.467384902446881
 21
31.42724636133524
  0
LINE
  5
64B
100
AcDbEntity
  8
larger
  6
ByLayer
 62
    7
370
   -1
100
AcDbLine
 10
4.467384902446881
 20
31.42724636133524
 11
4.854741091940909
 21
31.57903714601471
  0
LINE
  5
64C
100
AcDbEntity
  8
larger
  6
ByLayer
 62
    7
370
   -1
100
AcDbLine
 10
4.854741091940909
 20
31.57903714601471
 11
5.244133957330973
 21
31.72495748828472
  0
LINE
  5
64D
100
AcDbEntity
  8
larger
  6
ByLayer
 62
    7
370
   -1
100
AcDbLine
 10
5.244133957330973
 20
31.72495748828472
 11
5.635478715218639
 21
31.86516163672412
  0
LINE
  5
64E
100
AcDbEntity
  8
larger
  6
ByLayer
 62
    7
370
   -1
100
AcDbLine
 10
5.635478715218639
 20
31.86516163672412
 11
6.028690582205456
 21
31.99980383991172
  0
LINE
  5
64F
100
AcDbEntity
  8
larger
  6
ByLayer
 62
    7
370
   -1
100
AcDbLine
 10
6.028690582205456
 20
31.99980383991172
 11
6.42368477489299
 21
32.12903834642638
  0
LINE
  5
650
100
AcDbEntity
  8
larger
  6
ByLayer
 62
    7
370
   -1
100
AcDbLine
 10
6.42368477489299
 20
32.12903834642638
 11
6.820376509882621
 21
32.2530194048469
  0
LINE
  5
651
100
AcDbEntity
  8
larger
  6
ByLayer
 62
    7
370
   -1
100
AcDbLine
 10
6.820376509882621
 20
32.2530194048469
 11
7.218681003775899
 21
32.37190126375214
  0
LINE
  5
652
100
AcDbEntity
  8
larger
  6
ByLayer
 62
    7
370
   -1
100
AcDbLine
 10
7.218681003775899
 20
32.37190126375214
 11
7.618513473174488
 21
32.48583817172091
  0
LINE
  5
653
100
AcDbEntity
  8
larger
  6
ByLayer
 62
    7
370
   -1
100
AcDbLine
 10
7.618513473174488
 20
32.48583817172091
 11
8.019789134679755
 21
32.59498437733208
  0
LINE
  5
654
100
AcDbEntity
  8
larger
  6
ByLayer
 62
    7
370
   -1
100
AcDbLine
 10
8.019789134679755
 20
32.59498437733208
 11
8.422423204893263
 21
32.69949412916444
  0
LINE
  5
655
100
AcDbEntity
  8
larger
  6
ByLayer
 62
    7
370
   -1
100
AcDbLine
 10
8.422423204893263
 20
32.69949412916444
 11
8.826330900416664
 21
32.79952167579685
  0
LINE
  5
656
100
AcDbEntity
  8
larger
  6
ByLayer
 62
    7
370
   -1
100
AcDbLine
 10
8.826330900416664
 20
32.79952167579685
 11
9.231427437851337
 21
32.89522126580813
  0
LINE
  5
657
100
AcDbEntity
  8
larger
  6
ByLayer
 62
    7
370
   -1
100
AcDbLine
 10
9.231427437851337
 20
32.89522126580813
 11
9.637628033798833
 21
32.98674714777711
  0
LINE
  5
658
100
AcDbEntity
  8
larger
  6
ByLayer
 62
    7
370
   -1
100
AcDbLine
 10
9.637628033798833
 20
32.98674714777711
 11
10.04484790486062
 21
33.07425357028264
  0
LINE
  5
659
100
AcDbEntity
  8
larger
  6
ByLayer
 62
    7
370
   -1
100
AcDbLine
 10
10.04484790486062
 20
33.07425357028264
 11
10.45300226763845
 21
33.15789478190353
  0
LINE
  5
65A
100
AcDbEntity
  8
larger
  6
ByLayer
 62
    7
370
   -1
100
AcDbLine
 10
10.45300226763845
 20
33.15789478190353
 11
10.86200633873361
 21
33.23782503121863
  0
LINE
  5
65B
100
AcDbEntity
  8
larger
  6
ByLayer
 62
    7
370
   -1
100
AcDbLine
 10
10.86200633873361
 20
33.23782503121863
 11
11.27177533474764
 21
33.31419856680676
  0
LINE
  5
65C
100
AcDbEntity
  8
larger
  6
ByLayer
 62
    7
370
   -1
100
AcDbLine
 10
11.27177533474764
 20
33.31419856680676
 11
11.68222447228223
 21
33.38716963724676
  0
LINE
  5
65D
100
AcDbEntity
  8
larger
  6
ByLayer
 62
    7
370
   -1
100
AcDbLine
 10
11.68222447228223
 20
33.38716963724676
 11
12.09326896793873
 21
33.45689249111746
  0
LINE
  5
65E
100
AcDbEntity
  8
larger
  6
ByLayer
 62
    7
370
   -1
100
AcDbLine
 10
12.09326896793873
 20
33.45689249111746
 11
12.50482403831879
 21
33.52352137699769
  0
LINE
  5
65F
100
AcDbEntity
  8
larger
  6
ByLayer
 62
    7
370
   -1
100
AcDbLine
 10
12.50482403831879
 20
33.52352137699769
 11
12.91680490002386
 21
33.58721054346628
  0
LINE
  5
660
100
AcDbEntity
  8
larger
  6
ByLayer
 62
    7
370
   -1
100
AcDbLine
 10
12.91680490002386
 20
33.58721054346628
 11
13.32912676965556
 21
33.64811423910209
  0
LINE
  5
661
100
AcDbEntity
  8
larger
  6
ByLayer
 62
    7
370
   -1
100
AcDbLine
 10
13.32912676965556
 20
33.64811423910209
 11
13.74170486381522
 21
33.7063867124839
  0
LINE
  5
662
100
AcDbEntity
  8
larger
  6
ByLayer
 62
    7
370
   -1
100
AcDbLine
 10
13.74170486381522
 20
33.7063867124839
 11
14.15445439910457
 21
33.76218221219059
  0
LINE
  5
663
100
AcDbEntity
  8
larger
  6
ByLayer
 62
    7
370
   -1
100
AcDbLine
 10
14.15445439910457
 20
33.76218221219059
 11
14.56729059212503
 21
33.81565498680098
  0
LINE
  5
664
100
AcDbEntity
  8
larger
  6
ByLayer
 62
    7
370
   -1
100
AcDbLine
 10
14.56729059212503
 20
33.81565498680098
 11
14.98012865947804
 21
33.86695928489389
  0
LINE
  5
665
100
AcDbEntity
  8
larger
  6
ByLayer
 62
    7
370
   -1
100
AcDbLine
 10
14.98012865947804
 20
33.86695928489389
 11
15.39288381776535
 21
33.91624935504817
  0
LINE
  5
666
100
AcDbEntity
  8
larger
  6
ByLayer
 62
    7
370
   -1
100
AcDbLine
 10
15.39288381776535
 20
33.91624935504817
 11
15.80547128358835
 21
33.96367944584264
  0
LINE
  5
667
100
AcDbEntity
  8
larger
  6
ByLayer
 62
    7
370
   -1
100
AcDbLine
 10
15.80547128358835
 20
33.96367944584264
 11
16.21780627354848
 21
34.00940380585612
  0
LINE
  5
668
100
AcDbEntity
  8
larger
  6
ByLayer
 62
    7
370
   -1
100
AcDbLine
 10
16.21780627354848
 20
34.00940380585612
 11
16.6298040042474
 21
34.0535766836675
  0
LINE
  5
669
100
AcDbEntity
  8
larger
  6
ByLayer
 62
    7
370
   -1
100
AcDbLine
 10
16.6298040042474
 20
34.0535766836675
 11
17.42140168576515
 21
34.12509929510685
  0
LINE
  5
66A
100
AcDbEntity
  8
larger
  6
ByLayer
 62
    7
370
   -1
100
AcDbLine
 10
17.42140168576515
 20
34.12509929510685
 11
18.21445122267369
 21
34.18699790719071
  0
LINE
  5
66B
100
AcDbEntity
  8
larger
  6
ByLayer
 62
    7
370
   -1
100
AcDbLine
 10
18.21445122267369
 20
34.18699790719071
 11
19.00874977350675
 21
34.23912563656769
  0
LINE
  5
66C
100
AcDbEntity
  8
larger
  6
ByLayer
 62
    7
370
   -1
100
AcDbLine
 10
19.00874977350675
 20
34.23912563656769
 11
19.80409449679782
 21
34.28133559988648
  0
LINE
  5
66D
100
AcDbEntity
  8
larger
  6
ByLayer
 62
    7
370
   -1
100
AcDbLine
 10
19.80409449679782
 20
34.28133559988648
 11
20.6002825510804
 21
34.3134809137957
  0
LINE
  5
66E
100
AcDbEntity
  8
larger
  6
ByLayer
 62
    7
370
   -1
100
AcDbLine
 10
20.6002825510804
 20
34.3134809137957
 11
21.39711109488798
 21
34.33541469494405
  0
LINE
  5
66F
100
AcDbEntity
  8
larger
  6
ByLayer
 62
    7
370
   -1
100
AcDbLine
 10
21.39711109488798
 20
34.33541469494405
 11
22.19437728675412
 21
34.34699005998013
  0
LINE
  5
670
100
AcDbEntity
  8
larger
  6
ByLayer
 62
    7
370
   -1
100
AcDbLine
 10
22.19437728675412
 20
34.34699005998013
 11
22.99187828521231
 21
34.34806012555261
  0
LINE
  5
671
100
AcDbEntity
  8
larger
  6
ByLayer
 62
    7
370
   -1
100
AcDbLine
 10
22.99187828521231
 20
34.34806012555261
 11
23.78941124879607
 21
34.33847800831015
  0
LINE
  5
672
100
AcDbEntity
  8
larger
  6
ByLayer
 62
    7
370
   -1
100
AcDbLine
 10
23.78941124879607
 20
34.33847800831015
 11
24.58677333603893
 21
34.3180968249014
  0
LINE
  5
673
100
AcDbEntity
  8
larger
  6
ByLayer
 62
    7
370
   -1
100
AcDbLine
 10
24.58677333603893
 20
34.3180968249014
 11
25.38376170547441
 21
34.28676969197502
  0
LINE
  5
674
100
AcDbEntity
  8
larger
  6
ByLayer
 62
    7
370
   -1
100
AcDbLine
 10
25.38376170547441
 20
34.28676969197502
 11
26.180173515636
 21
34.24434972617966
  0
LINE
  5
675
100
AcDbEntity
  8
larger
  6
ByLayer
 62
    7
370
   -1
100
AcDbLine
 10
26.180173515636
 20
34.24434972617966
 11
26.97580592505722
 21
34.19069004416394
  0
LINE
  5
676
100
AcDbEntity
  8
larger
  6
ByLayer
 62
    7
370
   -1
100
AcDbLine
 10
26.97580592505722
 20
34.19069004416394
 11
27.77045609227162
 21
34.12564376257655
  0
LINE
  5
677
100
AcDbEntity
  8
larger
  6
ByLayer
 62
    7
370
   -1
100
AcDbLine
 10
27.77045609227162
 20
34.12564376257655
 11
28.56392117581269
 21
34.04906399806613
  0
LINE
  5
678
100
AcDbEntity
  8
larger
  6
ByLayer
 62
    7
370
   -1
100
AcDbLine
 10
28.56392117581269
 20
34.04906399806613
 11
29.35599833421395
 21
33.96080386728133
  0
LINE
  5
679
100
AcDbEntity
  8
larger
  6
ByLayer
 62
    7
370
   -1
100
AcDbLine
 10
29.35599833421395
 20
33.96080386728133
 11
30.14648472600892
 21
33.8607164868708
  0
LINE
  5
67A
100
AcDbEntity
  8
larger
  6
ByLayer
 62
    7
370
   -1
100
AcDbLine
 10
30.14648472600892
 20
33.8607164868708
 11
30.9351775097311
 21
33.7486549734832
  0
LINE
  5
67B
100
AcDbEntity
  8
larger
  6
ByLayer
 62
    7
370
   -1
100
AcDbLine
 10
30.9351775097311
 20
33.7486549734832
 11
31.72187384391407
 21
33.62447244376717
  0
LINE
  5
67C
100
AcDbEntity
  8
larger
  6
ByLayer
 62
    7
370
   -1
100
AcDbLine
 10
31.72187384391407
 20
33.62447244376717
 11
32.50637088709126
 21
33.4880220143714
  0
LINE
  5
67D
100
AcDbEntity
  8
larger
  6
ByLayer
 62
    7
370
   -1
100
AcDbLine
 10
32.50637088709126
 20
33.4880220143714
 11
33.28846579779623
 21
33.33915680194448
  0
LINE
  5
67E
100
AcDbEntity
  8
larger
  6
ByLayer
 62
    7
370
   -1
100
AcDbLine
 10
33.28846579779623
 20
33.33915680194448
 11
34.06795573456252
 21
33.17772992313512
  0
LINE
  5
67F
100
AcDbEntity
  8
larger
  6
ByLayer
 62
    7
370
   -1
100
AcDbLine
 10
34.06795573456252
 20
33.17772992313512
 11
34.84463785592359
 21
33.00359449459193
  0
LINE
  5
680
100
AcDbEntity
  8
larger
  6
ByLayer
 62
    7
370
   -1
100
AcDbLine
 10
34.84463785592359
 20
33.00359449459193
 11
35.61830932041299
 21
32.81660363296358
  0
LINE
  5
681
100
AcDbEntity
  8
larger
  6
ByLayer
 62
    7
370
   -1
100
AcDbLine
 10
35.61830932041299
 20
32.81660363296358
 11
36.38876728656425
 21
32.61661045489873
  0
LINE
  5
682
100
AcDbEntity
  8
larger
  6
ByLayer
 62
    7
370
   -1
100
AcDbLine
 10
36.38876728656425
 20
32.61661045489873
 11
37.15580891291086
 21
32.40346807704601
  0
LINE
  5
683
100
AcDbEntity
  8
larger
  6
ByLayer
 62
    7
370
   -1
100
AcDbLine
 10
37.15580891291086
 20
32.40346807704601
 11
37.91923135798635
 21
32.17702961605411
  0
LINE
  5
684
100
AcDbEntity
  8
larger
  6
ByLayer
 62
    7
370
   -1
100
AcDbLine
 10
37.91923135798635
 20
32.17702961605411
 11
38.67883178032424
 21
31.93714818857164
  0
LINE
  5
685
100
AcDbEntity
  8
larger
  6
ByLayer
 62
    7
370
   -1
100
AcDbLine
 10
38.67883178032424
 20
31.93714818857164
 11
39.43440733845803
 21
31.68367691124729
  0
LINE
  5
686
100
AcDbEntity
  8
larger
  6
ByLayer
 62
    7
370
   -1
100
AcDbLine
 10
39.43440733845803
 20
31.68367691124729
 11
40.18575519092127
 21
31.41646890072969
  0
LINE
  5
687
100
AcDbEntity
  8
larger
  6
ByLayer
 62
    7
370
   -1
100
AcDbLine
 10
40.18575519092127
 20
31.41646890072969
 11
40.93267249624745
 21
31.13537727366748
  0
LINE
  5
688
100
AcDbEntity
  8
larger
  6
ByLayer
 62
    7
370
   -1
100
AcDbLine
 10
40.93267249624745
 20
31.13537727366748
 11
41.20891258108421
 21
31.01232857863483
  0
LINE
  5
689
100
AcDbEntity
  8
larger
  6
ByLayer
 62
    7
370
   -1
100
AcDbLine
 10
41.20891258108421
 20
31.01232857863483
 11
41.48879915999048
 21
30.88812560675897
  0
LINE
  5
68A
100
AcDbEntity
  8
larger
  6
ByLayer
 62
    7
370
   -1
100
AcDbLine
 10
41.48879915999048
 20
30.88812560675897
 11
41.77163651285045
 21
30.76239466129241
  0
LINE
  5
68B
100
AcDbEntity
  8
larger
  6
ByLayer
 62
    7
370
   -1
100
AcDbLine
 10
41.77163651285045
 20
30.76239466129241
 11
42.05672891954843
 21
30.6347620454877
  0
LINE
  5
68C
100
AcDbEntity
  8
larger
  6
ByLayer
 62
    7
370
   -1
100
AcDbLine
 10
42.05672891954843
 20
30.6347620454877
 11
42.34338065996872
 21
30.50485406259737
  0
LINE
  5
68D
100
AcDbEntity
  8
larger
  6
ByLayer
 62
    7
370
   -1
100
AcDbLine
 10
42.34338065996872
 20
30.50485406259737
 11
42.63089601399551
 21
30.37229701587393
  0
LINE
  5
68E
100
AcDbEntity
  8
larger
  6
ByLayer
 62
    7
370
   -1
100
AcDbLine
 10
42.63089601399551
 20
30.37229701587393
 11
42.91857926151306
 21
30.23671720856991
  0
LINE
  5
68F
100
AcDbEntity
  8
larger
  6
ByLayer
 62
    7
370
   -1
100
AcDbLine
 10
42.91857926151306
 20
30.23671720856991
 11
43.20573468240569
 21
30.09774094393784
  0
LINE
  5
690
100
AcDbEntity
  8
larger
  6
ByLayer
 62
    7
370
   -1
100
AcDbLine
 10
43.20573468240569
 20
30.09774094393784
 11
43.4916665565576
 21
29.95499452523023
  0
LINE
  5
691
100
AcDbEntity
  8
larger
  6
ByLayer
 62
    7
370
   -1
100
AcDbLine
 10
43.4916665565576
 20
29.95499452523023
 11
43.7756791638531
 21
29.80810425569964
  0
LINE
  5
692
100
AcDbEntity
  8
larger
  6
ByLayer
 62
    7
370
   -1
100
AcDbLine
 10
43.7756791638531
 20
29.80810425569964
 11
44.05707678417642
 21
29.65669643859857
  0
LINE
  5
693
100
AcDbEntity
  8
larger
  6
ByLayer
 62
    7
370
   -1
100
AcDbLine
 10
44.05707678417642
 20
29.65669643859857
 11
44.33516369741184
 21
29.50039737717955
  0
LINE
  5
694
100
AcDbEntity
  8
larger
  6
ByLayer
 62
    7
370
   -1
100
AcDbLine
 10
44.33516369741184
 20
29.50039737717955
 11
44.60924418344358
 21
29.33883337469512
  0
LINE
  5
695
100
AcDbEntity
  8
larger
  6
ByLayer
 62
    7
370
   -1
100
AcDbLine
 10
44.60924418344358
 20
29.33883337469512
 11
44.87862252215595
 21
29.17163073439778
  0
LINE
  5
696
100
AcDbEntity
  8
larger
  6
ByLayer
 62
    7
370
   -1
100
AcDbLine
 10
44.87862252215595
 20
29.17163073439778
 11
45.14260299343317
 21
28.99841575954007
  0
LINE
  5
697
100
AcDbEntity
  8
larger
  6
ByLayer
 62
    7
370
   -1
100
AcDbLine
 10
45.14260299343317
 20
28.99841575954007
 11
45.40048987715954
 21
28.81881475337452
  0
LINE
  5
698
100
AcDbEntity
  8
larger
  6
ByLayer
 62
    7
370
   -1
100
AcDbLine
 10
45.40048987715954
 20
28.81881475337452
 11
45.65158745321929
 21
28.63245401915364
  0
LINE
  5
699
100
AcDbEntity
  8
larger
  6
ByLayer
 62
    7
370
   -1
100
AcDbLine
 10
45.65158745321929
 20
28.63245401915364
 11
45.89520000149669
 21
28.43895986012997
  0
LINE
  5
69A
100
AcDbEntity
  8
larger
  6
ByLayer
 62
    7
370
   -1
100
AcDbLine
 10
45.89520000149669
 20
28.43895986012997
 11
46.13063180187599
 21
28.23795857955604
  0
LINE
  5
69B
100
AcDbEntity
  8
larger
  6
ByLayer
 62
    7
370
   -1
100
AcDbLine
 10
46.13063180187599
 20
28.23795857955604
 11
46.35718713424147
 21
28.02907648068438
  0
LINE
  5
69C
100
AcDbEntity
  8
larger
  6
ByLayer
 62
    7
370
   -1
100
AcDbLine
 10
46.35718713424147
 20
28.02907648068438
 11
46.5741702784774
 21
27.81193986676748
  0
LINE
  5
69D
100
AcDbEntity
  8
larger
  6
ByLayer
 62
    7
370
   -1
100
AcDbLine
 10
46.5741702784774
 20
27.81193986676748
 11
46.780885514468
 21
27.58617504105791
  0
LINE
  5
69E
100
AcDbEntity
  8
larger
  6
ByLayer
 62
    7
370
   -1
100
AcDbLine
 10
46.780885514468
 20
27.58617504105791
 11
46.97663712209754
 21
27.35140830680817
  0
LINE
  5
69F
100
AcDbEntity
  8
larger
  6
ByLayer
 62
    7
370
   -1
100
AcDbLine
 10
46.97663712209754
 20
27.35140830680817
 11
47.16072938125031
 21
27.10726596727079
  0
LINE
  5
6A0
100
AcDbEntity
  8
larger
  6
ByLayer
 62
    7
370
   -1
100
AcDbLine
 10
47.16072938125031
 20
27.10726596727079
 11
47.33246657181054
 21
26.8533743256983
  0
LINE
  5
6A1
100
AcDbEntity
  8
larger
  6
ByLayer
 62
    7
370
   -1
100
AcDbLine
 10
47.33246657181054
 20
26.8533743256983
 11
47.49115297366251
 21
26.58935968534323
  0
LINE
  5
6A2
100
AcDbEntity
  8
larger
  6
ByLayer
 62
    7
370
   -1
100
AcDbLine
 10
47.49115297366251
 20
26.58935968534323
 11
47.63609286669046
 21
26.31484834945811
  0
LINE
  5
6A3
100
AcDbEntity
  8
larger
  6
ByLayer
 62
    7
370
   -1
100
AcDbLine
 10
47.63609286669046
 20
26.31484834945811
 11
47.7665905307787
 21
26.02946662129543
  0
LINE
  5
6A4
100
AcDbEntity
  8
larger
  6
ByLayer
 62
    7
370
   -1
100
AcDbLine
 10
47.7665905307787
 20
26.02946662129543
 11
47.88195024581141
 21
25.73284080410776
  0
LINE
  5
6A5
100
AcDbEntity
  8
larger
  6
ByLayer
 62
    7
370
   -1
100
AcDbLine
 10
47.88195024581141
 20
25.73284080410776
 11
47.98147629167292
 21
25.42459720114761
  0
LINE
  5
6A6
100
AcDbEntity
  8
larger
  6
ByLayer
 62
    7
370
   -1
100
AcDbLine
 10
47.98147629167292
 20
25.42459720114761
 11
48.06447294824744
 21
25.10436211566748
  0
LINE
  5
6A7
100
AcDbEntity
  8
larger
  6
ByLayer
 62
    7
370
   -1
100
AcDbLine
 10
48.06447294824744
 20
25.10436211566748
 11
48.11813334693855
 21
24.54236076466531
  0
LINE
  5
6A8
100
AcDbEntity
  8
larger
  6
ByLayer
 62
    7
370
   -1
100
AcDbLine
 10
48.11813334693855
 20
24.54236076466531
 11
48.15435822659192
 21
23.98147103077179
  0
LINE
  5
6A9
100
AcDbEntity
  8
larger
  6
ByLayer
 62
    7
370
   -1
100
AcDbLine
 10
48.15435822659192
 20
23.98147103077179
 11
48.17375722586814
 21
23.42172618865645
  0
LINE
  5
6AA
100
AcDbEntity
  8
larger
  6
ByLayer
 62
    7
370
   -1
100
AcDbLine
 10
48.17375722586814
 20
23.42172618865645
 11
48.17693998342776
 21
22.86315951298883
  0
LINE
  5
6AB
100
AcDbEntity
  8
larger
  6
ByLayer
 62
    7
370
   -1
100
AcDbLine
 10
48.17693998342776
 20
22.86315951298883
 11
48.16451613793124
 21
22.30580427843845
  0
LINE
  5
6AC
100
AcDbEntity
  8
larger
  6
ByLayer
 62
    7
370
   -1
100
AcDbLine
 10
48.16451613793124
 20
22.30580427843845
 11
48.13709532803921
 21
21.74969375967487
  0
LINE
  5
6AD
100
AcDbEntity
  8
larger
  6
ByLayer
 62
    7
370
   -1
100
AcDbLine
 10
48.13709532803921
 20
21.74969375967487
 11
48.09528719241214
 21
21.19486123136759
  0
LINE
  5
6AE
100
AcDbEntity
  8
larger
  6
ByLayer
 62
    7
370
   -1
100
AcDbLine
 10
48.09528719241214
 20
21.19486123136759
 11
48.03970136971058
 21
20.64133996818618
  0
LINE
  5
6AF
100
AcDbEntity
  8
larger
  6
ByLayer
 62
    7
370
   -1
100
AcDbLine
 10
48.03970136971058
 20
20.64133996818618
 11
47.97094749859508
 21
20.08916324480011
  0
LINE
  5
6B0
100
AcDbEntity
  8
larger
  6
ByLayer
 62
    7
370
   -1
100
AcDbLine
 10
47.97094749859508
 20
20.08916324480011
 11
47.88963521772615
 21
19.53836433587896
  0
LINE
  5
6B1
100
AcDbEntity
  8
larger
  6
ByLayer
 62
    7
370
   -1
100
AcDbLine
 10
47.88963521772615
 20
19.53836433587896
 11
47.79637416576436
 21
18.98897651609225
  0
LINE
  5
6B2
100
AcDbEntity
  8
larger
  6
ByLayer
 62
    7
370
   -1
100
AcDbLine
 10
47.79637416576436
 20
18.98897651609225
 11
47.6917739813702
 21
18.4410330601095
  0
LINE
  5
6B3
100
AcDbEntity
  8
larger
  6
ByLayer
 62
    7
370
   -1
100
AcDbLine
 10
47.6917739813702
 20
18.4410330601095
 11
47.57644430320425
 21
17.89456724260025
  0
LINE
  5
6B4
100
AcDbEntity
  8
larger
  6
ByLayer
 62
    7
370
   -1
100
AcDbLine
 10
47.57644430320425
 20
17.89456724260025
 11
47.45099476992702
 21
17.34961233823404
  0
LINE
  5
6B5
100
AcDbEntity
  8
larger
  6
ByLayer
 62
    7
370
   -1
100
AcDbLine
 10
47.45099476992702
 20
17.34961233823404
 11
47.31603502019905
 21
16.8062016216804
  0
LINE
  5
6B6
100
AcDbEntity
  8
larger
  6
ByLayer
 62
    7
370
   -1
100
AcDbLine
 10
47.31603502019905
 20
16.8062016216804
 11
47.17217469268087
 21
16.26436836760881
  0
LINE
  5
6B7
100
AcDbEntity
  8
larger
  6
ByLayer
 62
    7
370
   -1
100
AcDbLine
 10
47.17217469268087
 20
16.26436836760881
 11
47.02002342603303
 21
15.72414585068888
  0
LINE
  5
6B8
100
AcDbEntity
  8
larger
  6
ByLayer
 62
    7
370
   -1
100
AcDbLine
 10
47.02002342603303
 20
15.72414585068888
 11
46.86019085891606
 21
15.18556734559008
  0
LINE
  5
6B9
100
AcDbEntity
  8
larger
  6
ByLayer
 62
    7
370
   -1
100
AcDbLine
 10
46.86019085891606
 20
15.18556734559008
 11
46.69328662999047
 21
14.64866612698198
  0
LINE
  5
6BA
100
AcDbEntity
  8
larger
  6
ByLayer
 62
    7
370
   -1
100
AcDbLine
 10
46.69328662999047
 20
14.64866612698198
 11
46.51992037791682
 21
14.11347546953409
  0
LINE
  5
6BB
100
AcDbEntity
  8
larger
  6
ByLayer
 62
    7
370
   -1
100
AcDbLine
 10
46.51992037791682
 20
14.11347546953409
 11
46.34070174135563
 21
13.58002864791596
  0
LINE
  5
6BC
100
AcDbEntity
  8
larger
  6
ByLayer
 62
    7
370
   -1
100
AcDbLine
 10
46.34070174135563
 20
13.58002864791596
 11
46.15624035896747
 21
13.04835893679709
  0
LINE
  5
6BD
100
AcDbEntity
  8
larger
  6
ByLayer
 62
    7
370
   -1
100
AcDbLine
 10
46.15624035896747
 20
13.04835893679709
 11
45.96714586941285
 21
12.51849961084705
  0
LINE
  5
6BE
100
AcDbEntity
  8
larger
  6
ByLayer
 62
    7
370
   -1
100
AcDbLine
 10
45.96714586941285
 20
12.51849961084705
 11
45.77402791135229
 21
11.99048394473532
  0
LINE
  5
6BF
100
AcDbEntity
  8
larger
  6
ByLayer
 62
    7
370
   -1
100
AcDbLine
 10
45.77402791135229
 20
11.99048394473532
 11
45.57749612344634
 21
11.4643452131315
  0
LINE
  5
6C0
100
AcDbEntity
  8
larger
  6
ByLayer
 62
    7
370
   -1
100
AcDbLine
 10
45.57749612344634
 20
11.4643452131315
 11
45.37816014435555
 21
10.94011669070506
  0
LINE
  5
6C1
100
AcDbEntity
  8
larger
  6
ByLayer
 62
    7
370
   -1
100
AcDbLine
 10
45.37816014435555
 20
10.94011669070506
 11
45.17662961274044
 21
10.41783165212556
  0
LINE
  5
6C2
100
AcDbEntity
  8
larger
  6
ByLayer
 62
    7
370
   -1
100
AcDbLine
 10
45.17662961274044
 20
10.41783165212556
 11
44.97351416726153
 21
9.897523372062498
  0
LINE
  5
6C3
100
AcDbEntity
  8
larger
  6
ByLayer
 62
    7
370
   -1
100
AcDbLine
 10
44.97351416726153
 20
9.897523372062498
 11
44.76942344657937
 21
9.379225125185471
  0
LINE
  5
6C4
100
AcDbEntity
  8
larger
  6
ByLayer
 62
    7
370
   -1
100
AcDbLine
 10
44.76942344657937
 20
9.379225125185471
 11
44.56496708935451
 21
8.862970186163961
  0
LINE
  5
6C5
100
AcDbEntity
  8
larger
  6
ByLayer
 62
    7
370
   -1
100
AcDbLine
 10
44.56496708935451
 20
8.862970186163961
 11
44.36075473424746
 21
8.348791829667501
  0
LINE
  5
6C6
100
AcDbEntity
  8
larger
  6
ByLayer
 62
    7
370
   -1
100
AcDbLine
 10
44.36075473424746
 20
8.348791829667501
 11
44.16369073797736
 21
7.91369115640172
  0
LINE
  5
6C7
100
AcDbEntity
  8
larger
  6
ByLayer
 62
    7
370
   -1
100
AcDbLine
 10
44.16369073797736
 20
7.91369115640172
 11
43.95701604647597
 21
7.480863233048236
  0
LINE
  5
6C8
100
AcDbEntity
  8
larger
  6
ByLayer
 62
    7
370
   -1
100
AcDbLine
 10
43.95701604647597
 20
7.480863233048236
 11
43.74075121422268
 21
7.050862666788763
  0
LINE
  5
6C9
100
AcDbEntity
  8
larger
  6
ByLayer
 62
    7
370
   -1
100
AcDbLine
 10
43.74075121422268
 20
7.050862666788763
 11
43.51491679569689
 21
6.624244064805087
  0
LINE
  5
6CA
100
AcDbEntity
  8
larger
  6
ByLayer
 62
    7
370
   -1
100
AcDbLine
 10
43.51491679569689
 20
6.624244064805087
 11
43.279533345378
 21
6.201562034278947
  0
LINE
  5
6CB
100
AcDbEntity
  8
larger
  6
ByLayer
 62
    7
370
   -1
100
AcDbLine
 10
43.279533345378
 20
6.201562034278947
 11
43.03462141774543
 21
5.783371182392131
  0
LINE
  5
6CC
100
AcDbEntity
  8
larger
  6
ByLayer
 62
    7
370
   -1
100
AcDbLine
 10
43.03462141774543
 20
5.783371182392131
 11
42.78020156727857
 21
5.370226116326414
  0
LINE
  5
6CD
100
AcDbEntity
  8
larger
  6
ByLayer
 62
    7
370
   -1
100
AcDbLine
 10
42.78020156727857
 20
5.370226116326414
 11
42.51629434845684
 21
4.96268144326354
  0
LINE
  5
6CE
100
AcDbEntity
  8
larger
  6
ByLayer
 62
    7
370
   -1
100
AcDbLine
 10
42.51629434845684
 20
4.96268144326354
 11
42.24292031575965
 21
4.561291770385298
  0
LINE
  5
6CF
100
AcDbEntity
  8
larger
  6
ByLayer
 62
    7
370
   -1
100
AcDbLine
 10
42.24292031575965
 20
4.561291770385298
 11
41.9601000236664
 21
4.16661170487342
  0
LINE
  5
6D0
100
AcDbEntity
  8
larger
  6
ByLayer
 62
    7
370
   -1
100
AcDbLine
 10
41.9601000236664
 20
4.16661170487342
 11
41.66785402665651
 21
3.779195853909702
  0
LINE
  5
6D1
100
AcDbEntity
  8
larger
  6
ByLayer
 62
    7
370
   -1
100
AcDbLine
 10
41.66785402665651
 20
3.779195853909702
 11
41.36620287920934
 21
3.399598824675914
  0
LINE
  5
6D2
100
AcDbEntity
  8
larger
  6
ByLayer
 62
    7
370
   -1
100
AcDbLine
 10
41.36620287920934
 20
3.399598824675914
 11
41.05516713580437
 21
3.028375224353802
  0
LINE
  5
6D3
100
AcDbEntity
  8
larger
  6
ByLayer
 62
    7
370
   -1
100
AcDbLine
 10
41.05516713580437
 20
3.028375224353802
 11
40.73476735092093
 21
2.666079660125156
  0
LINE
  5
6D4
100
AcDbEntity
  8
larger
  6
ByLayer
 62
    7
370
   -1
100
AcDbLine
 10
40.73476735092093
 20
2.666079660125156
 11
40.4050240790385
 21
2.313266739171706
  0
LINE
  5
6D5
100
AcDbEntity
  8
larger
  6
ByLayer
 62
    7
370
   -1
100
AcDbLine
 10
40.4050240790385
 20
2.313266739171706
 11
40.06595787463644
 21
1.97049106867523
  0
LINE
  5
6D6
100
AcDbEntity
  8
larger
  6
ByLayer
 62
    7
370
   -1
100
AcDbLine
 10
40.06595787463644
 20
1.97049106867523
 11
39.71758929219416
 21
1.638307255817526
  0
LINE
  5
6D7
100
AcDbEntity
  8
larger
  6
ByLayer
 62
    7
370
   -1
100
AcDbLine
 10
39.71758929219416
 20
1.638307255817526
 11
39.35993888619106
 21
1.317269907780348
  0
LINE
  5
6D8
100
AcDbEntity
  8
larger
  6
ByLayer
 62
    7
370
   -1
100
AcDbLine
 10
39.35993888619106
 20
1.317269907780348
 11
38.99302721110656
 21
1.007933631745441
  0
LINE
  5
6D9
100
AcDbEntity
  8
larger
  6
ByLayer
 62
    7
370
   -1
100
AcDbLine
 10
38.99302721110656
 20
1.007933631745441
 11
38.6168748214201
 21
0.7108530348945798
  0
LINE
  5
6DA
100
AcDbEntity
  8
larger
  6
ByLayer
 62
    7
370
   -1
100
AcDbLine
 10
38.6168748214201
 20
0.7108530348945798
 11
38.23150227161102
 21
0.4265827244095242
  0
LINE
  5
6DB
100
AcDbEntity
  8
larger
  6
ByLayer
 62
    7
370
   -1
100
AcDbLine
 10
38.23150227161102
 20
0.4265827244095242
 11
37.83693011615878
 21
0.1556773074720645
  0
LINE
  5
6DC
100
AcDbEntity
  8
larger
  6
ByLayer
 62
    7
370
   -1
100
AcDbLine
 10
37.83693011615878
 20
0.1556773074720645
 11
37.43317890954275
 21
-0.101308608736062
  0
LINE
  5
6DD
100
AcDbEntity
  8
larger
  6
ByLayer
 62
    7
370
   -1
100
AcDbLine
 10
37.43317890954275
 20
-0.101308608736062
 11
37.02026920624236
 21
-0.343820417033065
  0
LINE
  5
6DE
100
AcDbEntity
  8
larger
  6
ByLayer
 62
    7
370
   -1
100
AcDbLine
 10
37.02026920624236
 20
-0.343820417033065
 11
36.598221560737
 21
-0.5713035102371791
  0
LINE
  5
6DF
100
AcDbEntity
  8
larger
  6
ByLayer
 62
    7
370
   -1
100
AcDbLine
 10
36.598221560737
 20
-0.5713035102371791
 11
36.16705652750611
 21
-0.7832032811666565
  0
LINE
  5
6E0
100
AcDbEntity
  8
larger
  6
ByLayer
 62
    7
370
   -1
100
AcDbLine
 10
36.16705652750611
 20
-0.7832032811666565
 11
35.72679466102905
 21
-0.9789651226397105
  0
LINE
  5
6E1
100
AcDbEntity
  8
larger
  6
ByLayer
 62
    7
370
   -1
100
AcDbLine
 10
35.72679466102905
 20
-0.9789651226397105
 11
35.27745651578525
 21
-1.158034427474593
  0
LINE
  5
6E2
100
AcDbEntity
  8
larger
  6
ByLayer
 62
    7
370
   -1
100
AcDbLine
 10
35.27745651578525
 20
-1.158034427474593
 11
34.8190626462541
 21
-1.319856588489532
  0
LINE
  5
6E3
100
AcDbEntity
  8
larger
  6
ByLayer
 62
    7
370
   -1
100
AcDbLine
 10
34.8190626462541
 20
-1.319856588489532
 11
34.35163360691506
 21
-1.463876998502766
  0
LINE
  5
6E4
100
AcDbEntity
  8
larger
  6
ByLayer
 62
    7
370
   -1
100
AcDbLine
 10
34.35163360691506
 20
-1.463876998502766
 11
33.87518995224745
 21
-1.589541050332517
  0
LINE
  5
6E5
100
AcDbEntity
  8
larger
  6
ByLayer
 62
    7
370
   -1
100
AcDbLine
 10
33.87518995224745
 20
-1.589541050332517
 11
33.11889201948151
 21
-1.820642694286594
  0
LINE
  5
6E6
100
AcDbEntity
  8
larger
  6
ByLayer
 62
    7
370
   -1
100
AcDbLine
 10
33.11889201948151
 20
-1.820642694286594
 11
32.35811709288791
 21
-2.03877598953644
  0
LINE
  5
6E7
100
AcDbEntity
  8
larger
  6
ByLayer
 62
    7
370
   -1
100
AcDbLine
 10
32.35811709288791
 20
-2.03877598953644
 11
31.5931530289907
 21
-2.243826222711832
  0
LINE
  5
6E8
100
AcDbEntity
  8
larger
  6
ByLayer
 62
    7
370
   -1
100
AcDbLine
 10
31.5931530289907
 20
-2.243826222711832
 11
30.82428768431392
 21
-2.435678680442553
  0
LINE
  5
6E9
100
AcDbEntity
  8
larger
  6
ByLayer
 62
    7
370
   -1
100
AcDbLine
 10
30.82428768431392
 20
-2.435678680442553
 11
30.05180891538161
 21
-2.614218649358396
  0
LINE
  5
6EA
100
AcDbEntity
  8
larger
  6
ByLayer
 62
    7
370
   -1
100
AcDbLine
 10
30.05180891538161
 20
-2.614218649358396
 11
29.27600457871787
 21
-2.77933141608916
  0
LINE
  5
6EB
100
AcDbEntity
  8
larger
  6
ByLayer
 62
    7
370
   -1
100
AcDbLine
 10
29.27600457871787
 20
-2.77933141608916
 11
28.49716253084669
 21
-2.93090226726461
  0
LINE
  5
6EC
100
AcDbEntity
  8
larger
  6
ByLayer
 62
    7
370
   -1
100
AcDbLine
 10
28.49716253084669
 20
-2.93090226726461
 11
27.71557062829217
 21
-3.06881648951455
  0
LINE
  5
6ED
100
AcDbEntity
  8
larger
  6
ByLayer
 62
    7
370
   -1
100
AcDbLine
 10
27.71557062829217
 20
-3.06881648951455
 11
26.93151672757833
 21
-3.19295936946877
  0
LINE
  5
6EE
100
AcDbEntity
  8
larger
  6
ByLayer
 62
    7
370
   -1
100
AcDbLine
 10
26.93151672757833
 20
-3.19295936946877
 11
26.14528868522923
 21
-3.303216193757017
  0
LINE
  5
6EF
100
AcDbEntity
  8
larger
  6
ByLayer
 62
    7
370
   -1
100
AcDbLine
 10
26.14528868522923
 20
-3.303216193757017
 11
25.35717435776893
 21
-3.399472249009147
  0
LINE
  5
6F0
100
AcDbEntity
  8
larger
  6
ByLayer
 62
    7
370
   -1
100
AcDbLine
 10
25.35717435776893
 20
-3.399472249009147
 11
24.56746160172146
 21
-3.481612821854906
  0
LINE
  5
6F1
100
AcDbEntity
  8
larger
  6
ByLayer
 62
    7
370
   -1
100
AcDbLine
 10
24.56746160172146
 20
-3.481612821854906
 11
23.77643827361089
 21
-3.549523198924081
  0
LINE
  5
6F2
100
AcDbEntity
  8
larger
  6
ByLayer
 62
    7
370
   -1
100
AcDbLine
 10
23.77643827361089
 20
-3.549523198924081
 11
22.98439222996126
 21
-3.603088666846482
  0
LINE
  5
6F3
100
AcDbEntity
  8
larger
  6
ByLayer
 62
    7
370
   -1
100
AcDbLine
 10
22.98439222996126
 20
-3.603088666846482
 11
22.19161132729664
 21
-3.642194512251869
  0
LINE
  5
6F4
100
AcDbEntity
  8
larger
  6
ByLayer
 62
    7
370
   -1
100
AcDbLine
 10
22.19161132729664
 20
-3.642194512251869
 11
21.39838342214104
 21
-3.666726021770039
  0
LINE
  5
6F5
100
AcDbEntity
  8
larger
  6
ByLayer
 62
    7
370
   -1
100
AcDbLine
 10
21.39838342214104
 20
-3.666726021770039
 11
20.60499637101856
 21
-3.676568482030795
  0
LINE
  5
6F6
100
AcDbEntity
  8
larger
  6
ByLayer
 62
    7
370
   -1
100
AcDbLine
 10
20.60499637101856
 20
-3.676568482030795
 11
19.81173803045321
 21
-3.671607179663905
  0
LINE
  5
6F7
100
AcDbEntity
  8
larger
  6
ByLayer
 62
    7
370
   -1
100
AcDbLine
 10
19.81173803045321
 20
-3.671607179663905
 11
19.01889625696909
 21
-3.651727401299173
  0
LINE
  5
6F8
100
AcDbEntity
  8
larger
  6
ByLayer
 62
    7
370
   -1
100
AcDbLine
 10
19.01889625696909
 20
-3.651727401299173
 11
18.2267589070902
 21
-3.616814433566361
  0
LINE
  5
6F9
100
AcDbEntity
  8
larger
  6
ByLayer
 62
    7
370
   -1
100
AcDbLine
 10
18.2267589070902
 20
-3.616814433566361
 11
17.43561383734058
 21
-3.566753563095279
  0
LINE
  5
6FA
100
AcDbEntity
  8
larger
  6
ByLayer
 62
    7
370
   -1
100
AcDbLine
 10
17.43561383734058
 20
-3.566753563095279
 11
16.64574890424439
 21
-3.501430076515696
  0
LINE
  5
6FB
100
AcDbEntity
  8
larger
  6
ByLayer
 62
    7
370
   -1
100
AcDbLine
 10
16.64574890424439
 20
-3.501430076515696
 11
15.85745196432555
 21
-3.420729260457435
  0
LINE
  5
6FC
100
AcDbEntity
  8
larger
  6
ByLayer
 62
    7
370
   -1
100
AcDbLine
 10
15.85745196432555
 20
-3.420729260457435
 11
15.07101087410814
 21
-3.324536401550258
  0
LINE
  5
6FD
100
AcDbEntity
  8
larger
  6
ByLayer
 62
    7
370
   -1
100
AcDbLine
 10
15.07101087410814
 20
-3.324536401550258
 11
14.28671349011628
 21
-3.212736786423957
  0
LINE
  5
6FE
100
AcDbEntity
  8
larger
  6
ByLayer
 62
    7
370
   -1
100
AcDbLine
 10
14.28671349011628
 20
-3.212736786423957
 11
13.50484766887402
 21
-3.085215701708304
  0
LINE
  5
6FF
100
AcDbEntity
  8
larger
  6
ByLayer
 62
    7
370
   -1
100
AcDbLine
 10
13.50484766887402
 20
-3.085215701708304
 11
12.72570126690522
 21
-2.94185843403309
  0
LINE
  5
700
100
AcDbEntity
  8
larger
  6
ByLayer
 62
    7
370
   -1
100
AcDbLine
 10
12.72570126690522
 20
-2.94185843403309
 11
11.94956214073419
 21
-2.782550270028128
  0
LINE
  5
701
100
AcDbEntity
  8
larger
  6
ByLayer
 62
    7
370
   -1
100
AcDbLine
 10
11.94956214073419
 20
-2.782550270028128
 11
11.17671814688484
 21
-2.607176496323191
  0
LINE
  5
702
100
AcDbEntity
  8
larger
  6
ByLayer
 62
    7
370
   -1
100
AcDbLine
 10
11.17671814688484
 20
-2.607176496323191
 11
10.40745714188128
 21
-2.415622399548067
  0
LINE
  5
703
100
AcDbEntity
  8
larger
  6
ByLayer
 62
    7
370
   -1
100
AcDbLine
 10
10.40745714188128
 20
-2.415622399548067
 11
9.642066982247499
 21
-2.207773266332524
  0
LINE
  5
704
100
AcDbEntity
  8
larger
  6
ByLayer
 62
    7
370
   -1
100
AcDbLine
 10
9.642066982247499
 20
-2.207773266332524
 11
9.292380168632988
 21
-2.100882519803235
  0
LINE
  5
705
100
AcDbEntity
  8
larger
  6
ByLayer
 62
    7
370
   -1
100
AcDbLine
 10
9.292380168632988
 20
-2.100882519803235
 11
8.945455370846986
 21
-1.984978777644528
  0
LINE
  5
706
100
AcDbEntity
  8
larger
  6
ByLayer
 62
    7
370
   -1
100
AcDbLine
 10
8.945455370846986
 20
-1.984978777644528
 11
8.601569176443022
 21
-1.860147680967867
  0
LINE
  5
707
100
AcDbEntity
  8
larger
  6
ByLayer
 62
    7
370
   -1
100
AcDbLine
 10
8.601569176443022
 20
-1.860147680967867
 11
8.260998172974823
 21
-1.726474870884761
  0
LINE
  5
708
100
AcDbEntity
  8
larger
  6
ByLayer
 62
    7
370
   -1
100
AcDbLine
 10
8.260998172974823
 20
-1.726474870884761
 11
7.924018947996174
 21
-1.584045988506663
  0
LINE
  5
709
100
AcDbEntity
  8
larger
  6
ByLayer
 62
    7
370
   -1
100
AcDbLine
 10
7.924018947996174
 20
-1.584045988506663
 11
7.590908089060605
 21
-1.432946674945047
  0
LINE
  5
70A
100
AcDbEntity
  8
larger
  6
ByLayer
 62
    7
370
   -1
100
AcDbLine
 10
7.590908089060605
 20
-1.432946674945047
 11
7.261942183721999
 21
-1.273262571311395
  0
LINE
  5
70B
100
AcDbEntity
  8
larger
  6
ByLayer
 62
    7
370
   -1
100
AcDbLine
 10
7.261942183721999
 20
-1.273262571311395
 11
6.937397819533913
 21
-1.105079318717184
  0
LINE
  5
70C
100
AcDbEntity
  8
larger
  6
ByLayer
 62
    7
370
   -1
100
AcDbLine
 10
6.937397819533913
 20
-1.105079318717184
 11
6.61755158405002
 21
-0.9284825582738989
  0
LINE
  5
70D
100
AcDbEntity
  8
larger
  6
ByLayer
 62
    7
370
   -1
100
AcDbLine
 10
6.61755158405002
 20
-0.9284825582738989
 11
6.30268006482406
 21
-0.7435579310930152
  0
LINE
  5
70E
100
AcDbEntity
  8
larger
  6
ByLayer
 62
    7
370
   -1
100
AcDbLine
 10
6.30268006482406
 20
-0.7435579310930152
 11
5.993059849409732
 21
-0.5503910782859904
  0
LINE
  5
70F
100
AcDbEntity
  8
larger
  6
ByLayer
 62
    7
370
   -1
100
AcDbLine
 10
5.993059849409732
 20
-0.5503910782859904
 11
5.688967525360766
 21
-0.3490676409643214
  0
LINE
  5
710
100
AcDbEntity
  8
larger
  6
ByLayer
 62
    7
370
   -1
100
AcDbLine
 10
5.688967525360766
 20
-0.3490676409643214
 11
5.390679680230718
 21
-0.1396732602394728
  0
LINE
  5
711
100
AcDbEntity
  8
larger
  6
ByLayer
 62
    7
370
   -1
100
AcDbLine
 10
5.390679680230718
 20
-0.1396732602394728
 11
5.098472901573388
 21
0.07770642277707651
  0
LINE
  5
712
100
AcDbEntity
  8
larger
  6
ByLayer
 62
    7
370
   -1
100
AcDbLine
 10
5.098472901573388
 20
0.07770642277707651
 11
4.812623776942488
 21
0.3029857669738547
  0
LINE
  5
713
100
AcDbEntity
  8
larger
  6
ByLayer
 62
    7
370
   -1
100
AcDbLine
 10
4.812623776942488
 20
0.3029857669738547
 11
4.533408893891618
 21
0.5360791312393687
  0
LINE
  5
714
100
AcDbEntity
  8
larger
  6
ByLayer
 62
    7
370
   -1
100
AcDbLine
 10
4.533408893891618
 20
0.5360791312393687
 11
4.26110483997455
 21
0.7769008744621573
  0
LINE
  5
715
100
AcDbEntity
  8
larger
  6
ByLayer
 62
    7
370
   -1
100
AcDbLine
 10
4.26110483997455
 20
0.7769008744621573
 11
3.995988202744897
 21
1.025365355530738
  0
LINE
  5
716
100
AcDbEntity
  8
larger
  6
ByLayer
 62
    7
370
   -1
100
AcDbLine
 10
3.995988202744897
 20
1.025365355530738
 11
3.738335569756458
 21
1.281386933333629
  0
LINE
  5
717
100
AcDbEntity
  8
larger
  6
ByLayer
 62
    7
370
   -1
100
AcDbLine
 10
3.738335569756458
 20
1.281386933333629
 11
3.488423528562791
 21
1.544879966759357
  0
LINE
  5
718
100
AcDbEntity
  8
larger
  6
ByLayer
 62
    7
370
   -1
100
AcDbLine
 10
3.488423528562791
 20
1.544879966759357
 11
3.246528666717666
 21
1.815758814696446
  0
LINE
  5
719
100
AcDbEntity
  8
larger
  6
ByLayer
 62
    7
370
   -1
100
AcDbLine
 10
3.246528666717666
 20
1.815758814696446
 11
3.01292757177481
 21
2.09393783603343
  0
LINE
  5
71A
100
AcDbEntity
  8
larger
  6
ByLayer
 62
    7
370
   -1
100
AcDbLine
 10
3.01292757177481
 20
2.09393783603343
 11
2.787896831287725
 21
2.379331389658825
  0
LINE
  5
71B
100
AcDbEntity
  8
larger
  6
ByLayer
 62
    7
370
   -1
100
AcDbLine
 10
2.787896831287725
 20
2.379331389658825
 11
2.571713032810351
 21
2.671853834461151
  0
LINE
  5
71C
100
AcDbEntity
  8
larger
  6
ByLayer
 62
    7
370
   -1
100
AcDbLine
 10
2.571713032810351
 20
2.671853834461151
 11
2.364652763896245
 21
2.971419529328932
  0
LINE
  5
71D
100
AcDbEntity
  8
larger
  6
ByLayer
 62
    7
370
   -1
100
AcDbLine
 10
2.364652763896245
 20
2.971419529328932
 11
2.166992612099193
 21
3.277942833150687
  0
LINE
  5
71E
100
AcDbEntity
  8
larger
  6
ByLayer
 62
    7
370
   -1
100
AcDbLine
 10
2.166992612099193
 20
3.277942833150687
 11
1.979009164972751
 21
3.591338104814932
  0
LINE
  5
71F
100
AcDbEntity
  8
larger
  6
ByLayer
 62
    7
370
   -1
100
AcDbLine
 10
1.979009164972751
 20
3.591338104814932
 11
1.800979010070648
 21
3.911519703210221
  0
LINE
  5
720
100
AcDbEntity
  8
larger
  6
ByLayer
 62
    7
370
   -1
100
AcDbLine
 10
1.800979010070648
 20
3.911519703210221
 11
1.633178734946597
 21
4.23840198722506
  0
LINE
  5
721
100
AcDbEntity
  8
larger
  6
ByLayer
 62
    7
370
   -1
100
AcDbLine
 10
1.633178734946597
 20
4.23840198722506
 11
1.47588492715434
 21
4.571899315747984
  0
LINE
  5
722
100
AcDbEntity
  8
larger
  6
ByLayer
 62
    7
370
   -1
100
AcDbLine
 10
1.47588492715434
 20
4.571899315747984
 11
1.329374174247505
 21
4.911926047667489
  0
LINE
  5
723
100
AcDbEntity
  8
larger
  6
ByLayer
 62
    7
370
   -1
100
AcDbLine
 10
1.329374174247505
 20
4.911926047667489
 11
1.081557171724711
 21
5.429502334728957
  0
LINE
  5
724
100
AcDbEntity
  8
larger
  6
ByLayer
 62
    7
370
   -1
100
AcDbLine
 10
1.081557171724711
 20
5.429502334728957
 11
0.845197673686485
 21
5.951327115514005
  0
LINE
  5
725
100
AcDbEntity
  8
larger
  6
ByLayer
 62
    7
370
   -1
100
AcDbLine
 10
0.845197673686485
 20
5.951327115514005
 11
0.6201177812667709
 21
6.477225833939869
  0
LINE
  5
726
100
AcDbEntity
  8
larger
  6
ByLayer
 62
    7
370
   -1
100
AcDbLine
 10
0.6201177812667709
 20
6.477225833939869
 11
0.4061395955994129
 21
7.007023933923611
  0
LINE
  5
727
100
AcDbEntity
  8
larger
  6
ByLayer
 62
    7
370
   -1
100
AcDbLine
 10
0.4061395955994129
 20
7.007023933923611
 11
0.2030852178183267
 21
7.540546859382435
  0
LINE
  5
728
100
AcDbEntity
  8
larger
  6
ByLayer
 62
    7
370
   -1
100
AcDbLine
 10
0.2030852178183267
 20
7.540546859382435
 11
0.0107767490573849
 21
8.07762005423349
  0
LINE
  5
729
100
AcDbEntity
  8
larger
  6
ByLayer
 62
    7
370
   -1
100
AcDbLine
 10
0.0107767490573849
 20
8.07762005423349
 11
-0.1709637095494401
 21
8.61806896239395
  0
LINE
  5
72A
100
AcDbEntity
  8
larger
  6
ByLayer
 62
    7
370
   -1
100
AcDbLine
 10
-0.1709637095494401
 20
8.61806896239395
 11
-0.342314056868247
 21
9.161719027780943
  0
LINE
  5
72B
100
AcDbEntity
  8
larger
  6
ByLayer
 62
    7
370
   -1
100
AcDbLine
 10
-0.342314056868247
 20
9.161719027780943
 11
-0.5034521917652341
 21
9.708395694311633
  0
LINE
  5
72C
100
AcDbEntity
  8
larger
  6
ByLayer
 62
    7
370
   -1
100
AcDbLine
 10
-0.5034521917652341
 20
9.708395694311633
 11
-0.6545560131064292
 21
10.2579244059032
  0
LINE
  5
72D
100
AcDbEntity
  8
larger
  6
ByLayer
 62
    7
370
   -1
100
AcDbLine
 10
-0.6545560131064292
 20
10.2579244059032
 11
-0.7958034197579593
 21
10.81013060647276
  0
LINE
  5
72E
100
AcDbEntity
  8
larger
  6
ByLayer
 62
    7
370
   -1
100
AcDbLine
 10
-0.7958034197579593
 20
10.81013060647276
 11
-0.9273723105859091
 21
11.3648397399375
  0
LINE
  5
72F
100
AcDbEntity
  8
larger
  6
ByLayer
 62
    7
370
   -1
100
AcDbLine
 10
-0.9273723105859091
 20
11.3648397399375
 11
-1.04944058445642
 21
11.92187725021455
  0
LINE
  5
730
100
AcDbEntity
  8
larger
  6
ByLayer
 62
    7
370
   -1
100
AcDbLine
 10
-1.04944058445642
 20
11.92187725021455
 11
-1.162186140235576
 21
12.48106858122113
  0
LINE
  5
731
100
AcDbEntity
  8
larger
  6
ByLayer
 62
    7
370
   -1
100
AcDbLine
 10
-1.162186140235576
 20
12.48106858122113
 11
-1.26578687678942
 21
13.0422391768743
  0
LINE
  5
732
100
AcDbEntity
  8
larger
  6
ByLayer
 62
    7
370
   -1
100
AcDbLine
 10
-1.26578687678942
 20
13.0422391768743
 11
-1.360420692984164
 21
13.60521448109127
  0
LINE
  5
733
100
AcDbEntity
  8
larger
  6
ByLayer
 62
    7
370
   -1
100
AcDbLine
 10
-1.360420692984164
 20
13.60521448109127
 11
-1.446265487685793
 21
14.16981993778921
  0
LINE
  5
734
100
AcDbEntity
  8
larger
  6
ByLayer
 62
    7
370
   -1
100
AcDbLine
 10
-1.446265487685793
 20
14.16981993778921
 11
-1.523499159760448
 21
14.73588099088524
  0
LINE
  5
735
100
AcDbEntity
  8
larger
  6
ByLayer
 62
    7
370
   -1
100
AcDbLine
 10
-1.523499159760448
 20
14.73588099088524
 11
-1.592299608074214
 21
15.30322308429653
  0
LINE
  5
736
100
AcDbEntity
  8
larger
  6
ByLayer
 62
    7
370
   -1
100
AcDbLine
 10
-1.592299608074214
 20
15.30322308429653
 11
-1.652844731493246
 21
15.87167166194024
  0
LINE
  5
737
100
AcDbEntity
  8
larger
  6
ByLayer
 62
    7
370
   -1
100
AcDbLine
 10
-1.652844731493246
 20
15.87167166194024
 11
-1.705312428883516
 21
16.44105216773353
  0
LINE
  5
738
100
AcDbEntity
  8
larger
  6
ByLayer
 62
    7
370
   -1
100
AcDbLine
 10
-1.705312428883516
 20
16.44105216773353
 11
-1.749880599111364
 21
17.01119004559356
  0
LINE
  5
739
100
AcDbEntity
  8
larger
  6
ByLayer
 62
    7
370
   -1
100
AcDbLine
 10
-1.749880599111364
 20
17.01119004559356
 11
-1.786727141042689
 21
17.58191073943749
  0
LINE
  5
73A
100
AcDbEntity
  8
larger
  6
ByLayer
 62
    7
370
   -1
100
AcDbLine
 10
-1.786727141042689
 20
17.58191073943749
 11
-1.81602995354362
 21
18.15303969318244
  0
LINE
  5
73B
100
AcDbEntity
  8
larger
  6
ByLayer
 62
    7
370
   -1
100
AcDbLine
 10
-1.81602995354362
 20
18.15303969318244
 11
-1.837966935480353
 21
18.7244023507456
  0
LINE
  5
73C
100
AcDbEntity
  8
larger
  6
ByLayer
 62
    7
370
   -1
100
AcDbLine
 10
-1.837966935480353
 20
18.7244023507456
 11
-1.852715985718817
 21
19.29582415604411
  0
LINE
  5
73D
100
AcDbEntity
  8
larger
  6
ByLayer
 62
    7
370
   -1
100
AcDbLine
 10
-1.852715985718817
 20
19.29582415604411
 11
-1.86045500312531
 21
19.86713055299513
  0
LINE
  5
73E
100
AcDbEntity
  8
larger
  6
ByLayer
 62
    7
370
   -1
100
AcDbLine
 10
-1.86045500312531
 20
19.86713055299513
 11
-1.861361886565831
 21
20.4381469855158
  0
LINE
  5
73F
100
AcDbEntity
  8
larger
  6
ByLayer
 62
    7
370
   -1
100
AcDbLine
 10
-1.861361886565831
 20
20.4381469855158
 11
-1.855614534906451
 21
21.00869889752334
  0
LINE
  5
740
100
AcDbEntity
  8
larger
  6
ByLayer
 62
    7
370
   -1
100
AcDbLine
 10
-1.855614534906451
 20
21.00869889752334
 11
-1.843390847013325
 21
21.57861173293484
  0
LINE
  5
741
100
AcDbEntity
  8
larger
  6
ByLayer
 62
    7
370
   -1
100
AcDbLine
 10
-1.843390847013325
 20
21.57861173293484
 11
-1.824868721752594
 21
22.14771093566748
  0
LINE
  5
742
100
AcDbEntity
  8
0
  6
ByLayer
 62
  256
370
   -1
100
AcDbLine
 10
72.35828075002551
 20
7.898674750025515
 11
72.56558560619014
 21
7.440963122352728
  0
LINE
  5
743
100
AcDbEntity
  8
attache
  6
ByLayer
 62
  256
370
   -1
100
AcDbLine
 10
124.9368046842549
 20
30.40879372728656
 11
124.9368046842549
 21
32.9599013703037
  0
LINE
  5
744
100
AcDbEntity
  8
attache
  6
ByLayer
 62
  256
370
   -1
100
AcDbLine
 10
131.1443824291924
 20
31.83301143266734
 11
131.0940183377913
 21
30.40879372728656
  0
LINE
  5
745
100
AcDbEntity
  8
attache
  6
ByLayer
 62
  256
370
   -1
100
AcDbLine
 10
124.9368046842549
 20
30.40879372728656
 11
131.0940183377913
 21
30.40879372728656
  0
LINE
  5
746
100
AcDbEntity
  8
attache
  6
ByLayer
 62
  256
370
   -1
100
AcDbLine
 10
130.9172051609477
 20
25.40879372728657
 11
130.8735733254804
 21
24.17495368645525
  0
LINE
  5
747
100
AcDbEntity
  8
attache
  6
ByLayer
 62
  256
370
   -1
100
AcDbLine
 10
124.9368046842549
 20
20.39643499748038
 11
124.9368046842549
 21
25.40879372728657
  0
LINE
  5
748
100
AcDbEntity
  8
attache
  6
ByLayer
 62
  256
370
   -1
100
AcDbLine
 10
124.9368046842549
 20
25.40879372728657
 11
130.9172051609477
 21
25.40879372728657
  0
LINE
  5
749
100
AcDbEntity
  8
attache
  6
ByLayer
 62
  256
370
   -1
100
AcDbLine
 10
-12.94939182542939
 20
24.17495368645525
 11
-7.012623184203875
 21
20.39643499748037
  0
LINE
  5
74A
100
AcDbEntity
  8
attache
  6
ByLayer
 62
  256
370
   -1
100
AcDbLine
 10
-7.012623184203875
 20
32.9599013703037
 11
-13.22020092914138
 21
31.83301143266734
  0
LINE
  5
74B
100
AcDbEntity
  8
attache
  6
ByLayer
 62
  256
370
   -1
100
AcDbLine
 10
-7.012623184203875
 20
30.40879372728656
 11
-7.012623184203875
 21
32.9599013703037
  0
LINE
  5
74C
100
AcDbEntity
  8
attache
  6
ByLayer
 62
  256
370
   -1
100
AcDbLine
 10
-13.22020092914138
 20
31.83301143266734
 11
-13.16983683774032
 21
30.40879372728656
  0
LINE
  5
74D
100
AcDbEntity
  8
attache
  6
ByLayer
 62
  256
370
   -1
100
AcDbLine
 10
-7.012623184203875
 20
30.40879372728656
 11
-13.16983683774032
 21
30.40879372728656
  0
LINE
  5
74E
100
AcDbEntity
  8
attache
  6
ByLayer
 62
  256
370
   -1
100
AcDbLine
 10
-12.99302366089665
 20
25.40879372728657
 11
-12.94939182542939
 21
24.17495368645525
  0
LINE
  5
74F
100
AcDbEntity
  8
attache
  6
ByLayer
 62
  256
370
   -1
100
AcDbLine
 10
-7.012623184203875
 20
20.39643499748037
 11
-7.012623184203889
 21
25.40879372728657
  0
LINE
  5
750
100
AcDbEntity
  8
attache
  6
ByLayer
 62
  256
370
   -1
100
AcDbLine
 10
-7.012623184203889
 20
25.40879372728657
 11
-12.99302366089665
 21
25.40879372728657
  0
LINE
  5
751
100
AcDbEntity
  8
coupure
  6
ByLayer
 62
  256
370
   -1
100
AcDbLine
 10
17.92418150005102
 20
27.40879372728656
 11
-15.06499905691105
 21
27.40879372728656
  0
LINE
  5
752
100
AcDbEntity
  8
coupure
  6
ByLayer
 62
  256
370
   -1
100
AcDbLine
 10
-15.10036169227978
 20
28.40879372728656
 11
-15.06499905691105
 21
27.40879372728656
  0
LINE
  5
753
100
AcDbEntity
  8
coupure
  6
ByLayer
 62
  256
370
   -1
100
AcDbLine
 10
17.92418150005102
 20
28.40879372728656
 11
-15.10036169227978
 21
28.40879372728656
  0
LINE
  5
754
100
AcDbEntity
  8
coupure
  6
ByLayer
 62
  256
370
   -1
100
AcDbLine
 10
17.92418150005102
 20
28.40879372728656
 11
17.92418150005102
 21
27.40879372728656
  0
LINE
  5
755
100
AcDbEntity
  8
coupure
  6
ByLayer
 62
  256
370
   -1
100
AcDbLine
 10
100
 20
28.40879372728656
 11
100
 21
27.40879372728656
  0
LINE
  5
756
100
AcDbEntity
  8
coupure
  6
ByLayer
 62
  256
370
   -1
100
AcDbLine
 10
133.0245431923308
 20
28.40879372728656
 11
100
 21
28.40879372728656
  0
LINE
  5
757
100
AcDbEntity
  8
coupure
  6
ByLayer
 62
  256
370
   -1
100
AcDbLine
 10
132.989180556962
 20
27.40879372728656
 11
100
 21
27.40879372728656
  0
LINE
  5
758
100
AcDbEntity
  8
coupure
  6
ByLayer
 62
  256
370
   -1
100
AcDbLine
 10
133.0245431923308
 20
28.40879372728656
 11
132.989180556962
 21
27.40879372728656
  0
ARC
  5
759
100
AcDbEntity
  8
nez
  6
ByLayer
 62
  256
370
   -1
100
AcDbCircle
 10
56.79976756381485
 20
17.67543503163071
 40
6.506983626364321
100
AcDbArc
 50
125.2546014316388
 51
204.8328181113496
  0
ARC
  5
75A
100
AcDbEntity
  8
nez
  6
ByLayer
 62
  256
370
   -1
100
AcDbCircle
 10
61.12441393623617
 20
17.67543503163072
 40
6.506983626364234
100
AcDbArc
 50
335.1671818886502
 51
54.74539856836051
  0
ENDSEC
  0
SECTION
  2
OBJECTS
  0
DICTIONARY
  5
C
330
0
100
AcDbDictionary
281
    1
  3
ACAD_GROUP
350
D
  0
DICTIONARY
  5
D
330
C
100
AcDbDictionary
281
    1
  0
ENDSEC
  0
EOF
