999
dxfrw 0.6.3
  0
SECTION
  2
HEADER
  9
$ACADVER
  1
AC1021
  9
$DWGCODEPAGE
  3
ANSI_1252
  9
$INSBASE
 10
0
 20
0
 30
0
  9
$EXTMIN
 10
-7.018401483136402
 20
-7.740270990351505
 30
0
  9
$EXTMAX
 10
124.9425829831874
 20
38.2604894753764
 30
0
  9
$LIMMIN
 10
0
 20
0
  9
$LIMMAX
 10
420
 20
297
  9
$ORTHOMODE
 70
    0
  9
$REGENMODE
 70
    1
  9
$FILLMODE
 70
    1
  9
$QTEXTMODE
 70
    0
  9
$MIRRTEXT
 70
    0
  9
$LTSCALE
 40
1
  9
$ATTMODE
 70
    0
  9
$TEXTSIZE
 40
2.5
  9
$TRACEWID
 40
15.68
  9
$TEXTSTYLE
  7
STANDARD
  9
$CLAYER
  8
0
  9
$CELTYPE
  6
BYLAYER
  9
$CECOLOR
 62
  256
  9
$CELTSCALE
 40
1
  9
$DISPSILH
 70
    0
  9
$DIMSCALE
 40
1
  9
$DIMASZ
 40
2.5
  9
$DIMEXO
 40
0.625
  9
$DIMDLI
 40
3.75
  9
$DIMRND
 40
0
  9
$DIMDLE
 40
0
  9
$DIMEXE
 40
1.25
  9
$DIMTP
 40
0
  9
$DIMTM
 40
0
  9
$DIMTXT
 40
2.5
  9
$DIMCEN
 40
2.5
  9
$DIMTSZ
 40
0
  9
$DIMTOL
 70
    0
  9
$DIMLIM
 70
    0
  9
$DIMTIH
 70
    0
  9
$DIMTOH
 70
    0
  9
$DIMSE1
 70
    0
  9
$DIMSE2
 70
    0
  9
$DIMTAD
 70
    1
  9
$DIMZIN
 70
    8
  9
$DIMBLK
  1

  9
$DIMASO
 70
    1
  9
$DIMSHO
 70
    1
  9
$DIMPOST
  1

  9
$DIMAPOST
  1

  9
$DIMALT
 70
    0
  9
$DIMALTD
 70
    3
  9
$DIMALTF
 40
0.03937
  9
$DIMLFAC
 40
1
  9
$DIMTOFL
 70
    1
  9
$DIMTVP
 40
0
  9
$DIMTIX
 70
    0
  9
$DIMSOXD
 70
    0
  9
$DIMSAH
 70
    0
  9
$DIMBLK1
  1

  9
$DIMBLK2
  1

  9
$DIMSTYLE
  2
Standard
  9
$DIMCLRD
 70
    0
  9
$DIMCLRE
 70
    0
  9
$DIMCLRT
 70
    0
  9
$DIMTFAC
 40
1
  9
$DIMGAP
 40
0.625
  9
$DIMJUST
 70
    0
  9
$DIMSD1
 70
    0
  9
$DIMSD2
 70
    0
  9
$DIMTOLJ
 70
    0
  9
$DIMTZIN
 70
    8
  9
$DIMALTZ
 70
    0
  9
$DIMALTTZ
 70
    0
  9
$DIMUPT
 70
    0
  9
$DIMDEC
 70
    2
  9
$DIMTDEC
 70
    2
  9
$DIMALTU
 70
    2
  9
$DIMALTTD
 70
    3
  9
$DIMTXSTY
  7
STANDARD
  9
$DIMAUNIT
 70
    0
  9
$DIMADEC
 70
    0
  9
$DIMALTRND
 40
0
  9
$DIMAZIN
 70
    0
  9
$DIMDSEP
 70
   44
  9
$DIMATFIT
 70
    3
  9
$DIMFRAC
 70
    0
  9
$DIMLDRBLK
  1
STANDARD
  9
$DIMLUNIT
 70
    2
  9
$DIMLWD
 70
   -2
  9
$DIMLWE
 70
   -2
  9
$DIMTMOVE
 70
    0
  9
$DIMFXL
 40
1
  9
$DIMFXLON
 70
    0
  9
$DIMJOGANG
 40
0.7854
  9
$DIMTFILL
 70
    0
  9
$DIMTFILLCLR
 70
    0
  9
$DIMARCSYM
 70
    0
  9
$DIMLTYPE
  6

  9
$DIMLTEX1
  6

  9
$DIMLTEX2
  6

  9
$LUNITS
 70
    2
  9
$LUPREC
 70
    4
  9
$SKETCHINC
 40
1
  9
$FILLETRAD
 40
0
  9
$AUNITS
 70
    0
  9
$AUPREC
 70
    2
  9
$MENU
  1
.
  9
$ELEVATION
 40
0
  9
$PELEVATION
 40
0
  9
$THICKNESS
 40
0
  9
$LIMCHECK
 70
    0
  9
$CHAMFERA
 40
0
  9
$CHAMFERB
 40
0
  9
$CHAMFERC
 40
0
  9
$CHAMFERD
 40
0
  9
$SKPOLY
 70
    0
  9
$USRTIMER
 70
    1
  9
$ANGBASE
 50
0
  9
$ANGDIR
 70
    0
  9
$PDMODE
 70
   34
  9
$PDSIZE
 40
0
  9
$PLINEWID
 40
0
  9
$SPLFRAME
 70
    0
  9
$SPLINETYPE
 70
    2
  9
$SPLINESEGS
 70
    8
  9
$HANDSEED
  5
20000
  9
$SURFTAB1
 70
    6
  9
$SURFTAB2
 70
    6
  9
$SURFTYPE
 70
    6
  9
$SURFU
 70
    6
  9
$SURFV
 70
    6
  9
$UCSBASE
  2

  9
$UCSNAME
  2

  9
$UCSORG
 10
0
 20
0
 30
0
  9
$UCSXDIR
 10
1
 20
0
 30
0
  9
$UCSYDIR
 10
0
 20
1
 30
0
  9
$UCSORTHOREF
  2

  9
$UCSORTHOVIEW
 70
    0
  9
$UCSORGTOP
 10
0
 20
0
 30
0
  9
$UCSORGBOTTOM
 10
0
 20
0
 30
0
  9
$UCSORGLEFT
 10
0
 20
0
 30
0
  9
$UCSORGRIGHT
 10
0
 20
0
 30
0
  9
$UCSORGFRONT
 10
0
 20
0
 30
0
  9
$UCSORGBACK
 10
0
 20
0
 30
0
  9
$PUCSBASE
  2

  9
$PUCSNAME
  2

  9
$PUCSORG
 10
0
 20
0
 30
0
  9
$PUCSXDIR
 10
1
 20
0
 30
0
  9
$PUCSYDIR
 10
0
 20
1
 30
0
  9
$PUCSORTHOREF
  2

  9
$PUCSORTHOVIEW
 70
    0
  9
$PUCSORGTOP
 10
0
 20
0
 30
0
  9
$PUCSORGBOTTOM
 10
0
 20
0
 30
0
  9
$PUCSORGLEFT
 10
0
 20
0
 30
0
  9
$PUCSORGRIGHT
 10
0
 20
0
 30
0
  9
$PUCSORGFRONT
 10
0
 20
0
 30
0
  9
$PUCSORGBACK
 10
0
 20
0
 30
0
  9
$USERI1
 70
    0
  9
$USERI2
 70
    0
  9
$USERI3
 70
    0
  9
$USERI4
 70
    0
  9
$USERI5
 70
    0
  9
$USERR1
 40
0
  9
$USERR2
 40
0
  9
$USERR3
 40
0
  9
$USERR4
 40
0
  9
$USERR5
 40
0
  9
$WORLDVIEW
 70
    1
  9
$SHADEDGE
 70
    3
  9
$SHADEDIF
 70
   70
  9
$TILEMODE
 70
    1
  9
$MAXACTVP
 70
   64
  9
$PINSBASE
 10
0
 20
0
 30
0
  9
$PLIMCHECK
 70
    0
  9
$PEXTMIN
 10
0
 20
0
 30
0
  9
$PEXTMAX
 10
0
 20
0
 30
0
  9
$GRIDMODE
 70
    0
  9
$SNAPSTYLE
 70
    0
  9
$PLIMMIN
 10
0
 20
0
  9
$PLIMMAX
 10
297
 20
210
  9
$UNITMODE
 70
    0
  9
$VISRETAIN
 70
    1
  9
$PLINEGEN
 70
    0
  9
$PSLTSCALE
 70
    1
  9
$TREEDEPTH
 70
 3020
  9
$CMLSTYLE
  2
Standard
  9
$CMLJUST
 70
    0
  9
$CMLSCALE
 40
20
  9
$PROXYGRAPHICS
 70
    1
  9
$MEASUREMENT
 70
    1
  9
$CELWEIGHT
370
   -1
  9
$ENDCAPS
280
    0
  9
$JOINSTYLE
280
    0
  9
$LWDISPLAY
290
    0
  9
$INSUNITS
 70
    4
  9
$HYPERLINKBASE
  1

  9
$STYLESHEET
  1

  9
$XEDIT
290
    1
  9
$CEPSNTYPE
380
    0
  9
$PSTYLEMODE
290
    1
  9
$EXTNAMES
290
    1
  9
$PSVPSCALE
 40
1
  9
$OLESTARTUP
290
    0
  9
$SORTENTS
280
  127
  9
$INDEXCTL
280
    0
  9
$HIDETEXT
280
    1
  9
$XCLIPFRAME
290
    0
  9
$HALOGAP
280
    0
  9
$OBSCOLOR
 70
  257
  9
$OBSLTYPE
280
    0
  9
$INTERSECTIONDISPLAY
280
    0
  9
$INTERSECTIONCOLOR
 70
  257
  9
$DIMASSOC
280
    1
  9
$PROJECTNAME
  1

  9
$CAMERADISPLAY
290
    0
  9
$LENSLENGTH
 40
50
  9
$CAMERAHEIGHT
 40
0
  9
$STEPSPERSEC
 40
2
  9
$STEPSIZE
 40
50
  9
$3DDWFPREC
 40
2
  9
$PSOLWIDTH
 40
5
  9
$PSOLHEIGHT
 40
80
  9
$LOFTANG1
 40
1.570796326794897
  9
$LOFTANG2
 40
1.570796326794897
  9
$LOFTMAG1
 40
0
  9
$LOFTMAG2
 40
0
  9
$LOFTPARAM
 70
    7
  9
$LOFTNORMALS
280
    1
  9
$LATITUDE
 40
1
  9
$LONGITUDE
 40
1
  9
$NORTHDIRECTION
 40
0
  9
$TIMEZONE
 70
-8000
  9
$LIGHTGLYPHDISPLAY
280
    1
  9
$TILEMODELIGHTSYNCH
280
    1
  9
$SOLIDHIST
280
    1
  9
$SHOWHIST
280
    1
  9
$DWFFRAME
280
    2
  9
$DGNFRAME
280
    0
  9
$REALWORLDSCALE
290
    1
  9
$INTERFERECOLOR
 62
    1
  9
$CSHADOW
280
    0
  9
$SHADOWPLANELOCATION
 40
0
  0
ENDSEC
  0
SECTION
  2
CLASSES
  0
ENDSEC
  0
SECTION
  2
TABLES
  0
TABLE
  2
VPORT
  5
8
330
0
100
AcDbSymbolTable
 70
    1
  0
VPORT
  5
31
330
2
100
AcDbSymbolTableRecord
100
AcDbViewportTableRecord
  2
*ACTIVE
 70
    0
 10
0
 20
0
 11
1
 21
1
 12
69.12053151084046
 22
42.34118862718464
 13
0
 23
0
 14
10
 24
10
 15
10
 25
10
 16
0
 26
0
 36
1
 17
0
 27
0
 37
0
 40
105.301822864545
 41
1.708128078817734
 42
50
 43
0
 44
0
 50
0
 51
0
 71
    0
 72
  100
 73
    1
 74
    3
 75
    0
 76
    0
 77
    0
 78
    0
281
    0
 65
    1
110
0
120
0
130
0
111
1
121
0
131
0
112
0
122
1
132
0
 79
    0
146
0
348
10020
 60
    7
 61
    5
292
1
282
    1
141
0
142
0
 63
  250
421
3358443
  0
ENDTAB
  0
TABLE
  2
LTYPE
  5
5
330
0
100
AcDbSymbolTable
 70
    4
  0
LTYPE
  5
14
330
5
100
AcDbSymbolTableRecord
100
AcDbLinetypeTableRecord
  2
ByBlock
 70
    0
  3

 72
   65
 73
    0
 40
0
  0
LTYPE
  5
15
330
5
100
AcDbSymbolTableRecord
100
AcDbLinetypeTableRecord
  2
ByLayer
 70
    0
  3

 72
   65
 73
    0
 40
0
  0
LTYPE
  5
16
330
5
100
AcDbSymbolTableRecord
100
AcDbLinetypeTableRecord
  2
Continuous
 70
    0
  3
Solid line
 72
   65
 73
    0
 40
0
  0
LTYPE
  5
32
330
5
100
AcDbSymbolTableRecord
100
AcDbLinetypeTableRecord
  2
DOT
 70
    0
  3
Dot . . . . . . . . . . . . . . . . . . . . . .
 72
   65
 73
    2
 40
6.35
 49
0
 74
    0
 49
-6.35
 74
    0
  0
LTYPE
  5
33
330
5
100
AcDbSymbolTableRecord
100
AcDbLinetypeTableRecord
  2
DOTTINY
 70
    0
  3
Dot (.15x) .....................................
 72
   65
 73
    2
 40
0.9525
 49
0
 74
    0
 49
-0.9525
 74
    0
  0
LTYPE
  5
34
330
5
100
AcDbSymbolTableRecord
100
AcDbLinetypeTableRecord
  2
DOT2
 70
    0
  3
Dot (.5x) .....................................
 72
   65
 73
    2
 40
3.175
 49
0
 74
    0
 49
-3.175
 74
    0
  0
LTYPE
  5
35
330
5
100
AcDbSymbolTableRecord
100
AcDbLinetypeTableRecord
  2
DOTX2
 70
    0
  3
Dot (2x) .  .  .  .  .  .  .  .  .  .  .  .  .
 72
   65
 73
    2
 40
12.7
 49
0
 74
    0
 49
-12.7
 74
    0
  0
LTYPE
  5
36
330
5
100
AcDbSymbolTableRecord
100
AcDbLinetypeTableRecord
  2
DASHED
 70
    0
  3
Dashed _ _ _ _ _ _ _ _ _ _ _ _ _ _ _ _ _
 72
   65
 73
    2
 40
19.05
 49
12.7
 74
    0
 49
-6.35
 74
    0
  0
LTYPE
  5
37
330
5
100
AcDbSymbolTableRecord
100
AcDbLinetypeTableRecord
  2
DASHEDTINY
 70
    0
  3
Dashed (.15x) _ _ _ _ _ _ _ _ _ _ _ _ _ _ _ _ _
 72
   65
 73
    2
 40
2.8575
 49
1.905
 74
    0
 49
-0.9525
 74
    0
  0
LTYPE
  5
38
330
5
100
AcDbSymbolTableRecord
100
AcDbLinetypeTableRecord
  2
DASHED2
 70
    0
  3
Dashed (.5x) _ _ _ _ _ _ _ _ _ _ _ _ _ _ _ _ _
 72
   65
 73
    2
 40
9.524999999999999
 49
6.35
 74
    0
 49
-3.175
 74
    0
  0
LTYPE
  5
39
330
5
100
AcDbSymbolTableRecord
100
AcDbLinetypeTableRecord
  2
DASHEDX2
 70
    0
  3
Dashed (2x) ____  ____  ____  ____  ____  ___
 72
   65
 73
    2
 40
38.09999999999999
 49
25.4
 74
    0
 49
-12.7
 74
    0
  0
LTYPE
  5
3A
330
5
100
AcDbSymbolTableRecord
100
AcDbLinetypeTableRecord
  2
DASHDOT
 70
    0
  3
Dash dot __ . __ . __ . __ . __ . __ . __ . __
 72
   65
 73
    4
 40
25.4
 49
12.7
 74
    0
 49
-6.35
 74
    0
 49
0
 74
    0
 49
-6.35
 74
    0
  0
LTYPE
  5
3B
330
5
100
AcDbSymbolTableRecord
100
AcDbLinetypeTableRecord
  2
DASHDOTTINY
 70
    0
  3
Dash dot (.15x) _._._._._._._._._._._._._._._.
 72
   65
 73
    4
 40
3.81
 49
1.905
 74
    0
 49
-0.9525
 74
    0
 49
0
 74
    0
 49
-0.9525
 74
    0
  0
LTYPE
  5
3C
330
5
100
AcDbSymbolTableRecord
100
AcDbLinetypeTableRecord
  2
DASHDOT2
 70
    0
  3
Dash dot (.5x) _._._._._._._._._._._._._._._.
 72
   65
 73
    4
 40
12.7
 49
6.35
 74
    0
 49
-3.175
 74
    0
 49
0
 74
    0
 49
-3.175
 74
    0
  0
LTYPE
  5
3D
330
5
100
AcDbSymbolTableRecord
100
AcDbLinetypeTableRecord
  2
DASHDOTX2
 70
    0
  3
Dash dot (2x) ____  .  ____  .  ____  .  ___
 72
   65
 73
    4
 40
50.8
 49
25.4
 74
    0
 49
-12.7
 74
    0
 49
0
 74
    0
 49
-12.7
 74
    0
  0
LTYPE
  5
3E
330
5
100
AcDbSymbolTableRecord
100
AcDbLinetypeTableRecord
  2
DIVIDE
 70
    0
  3
Divide ____ . . ____ . . ____ . . ____ . . ____
 72
   65
 73
    6
 40
31.75
 49
12.7
 74
    0
 49
-6.35
 74
    0
 49
0
 74
    0
 49
-6.35
 74
    0
 49
0
 74
    0
 49
-6.35
 74
    0
  0
LTYPE
  5
3F
330
5
100
AcDbSymbolTableRecord
100
AcDbLinetypeTableRecord
  2
DIVIDETINY
 70
    0
  3
Divide (.15x) __..__..__..__..__..__..__..__.._
 72
   65
 73
    6
 40
4.7625
 49
1.905
 74
    0
 49
-0.9525
 74
    0
 49
0
 74
    0
 49
-0.9525
 74
    0
 49
0
 74
    0
 49
-0.9525
 74
    0
  0
LTYPE
  5
40
330
5
100
AcDbSymbolTableRecord
100
AcDbLinetypeTableRecord
  2
DIVIDE2
 70
    0
  3
Divide (.5x) __..__..__..__..__..__..__..__.._
 72
   65
 73
    6
 40
15.875
 49
6.35
 74
    0
 49
-3.175
 74
    0
 49
0
 74
    0
 49
-3.175
 74
    0
 49
0
 74
    0
 49
-3.175
 74
    0
  0
LTYPE
  5
41
330
5
100
AcDbSymbolTableRecord
100
AcDbLinetypeTableRecord
  2
DIVIDEX2
 70
    0
  3
Divide (2x) ________  .  .  ________  .  .  _
 72
   65
 73
    6
 40
63.5
 49
25.4
 74
    0
 49
-12.7
 74
    0
 49
0
 74
    0
 49
-12.7
 74
    0
 49
0
 74
    0
 49
-12.7
 74
    0
  0
LTYPE
  5
42
330
5
100
AcDbSymbolTableRecord
100
AcDbLinetypeTableRecord
  2
BORDER
 70
    0
  3
Border __ __ . __ __ . __ __ . __ __ . __ __ .
 72
   65
 73
    6
 40
44.45
 49
12.7
 74
    0
 49
-6.35
 74
    0
 49
12.7
 74
    0
 49
-6.35
 74
    0
 49
0
 74
    0
 49
-6.35
 74
    0
  0
LTYPE
  5
43
330
5
100
AcDbSymbolTableRecord
100
AcDbLinetypeTableRecord
  2
BORDERTINY
 70
    0
  3
Border (.15x) __.__.__.__.__.__.__.__.__.__.__.
 72
   65
 73
    6
 40
6.6675
 49
1.905
 74
    0
 49
-0.9525
 74
    0
 49
1.905
 74
    0
 49
-0.9525
 74
    0
 49
0
 74
    0
 49
-0.9525
 74
    0
  0
LTYPE
  5
44
330
5
100
AcDbSymbolTableRecord
100
AcDbLinetypeTableRecord
  2
BORDER2
 70
    0
  3
Border (.5x) __.__.__.__.__.__.__.__.__.__.__.
 72
   65
 73
    6
 40
22.225
 49
6.35
 74
    0
 49
-3.175
 74
    0
 49
6.35
 74
    0
 49
-3.175
 74
    0
 49
0
 74
    0
 49
-3.175
 74
    0
  0
LTYPE
  5
45
330
5
100
AcDbSymbolTableRecord
100
AcDbLinetypeTableRecord
  2
BORDERX2
 70
    0
  3
Border (2x) ____  ____  .  ____  ____  .  ___
 72
   65
 73
    6
 40
88.89999999999999
 49
25.4
 74
    0
 49
-12.7
 74
    0
 49
25.4
 74
    0
 49
-12.7
 74
    0
 49
0
 74
    0
 49
-12.7
 74
    0
  0
LTYPE
  5
46
330
5
100
AcDbSymbolTableRecord
100
AcDbLinetypeTableRecord
  2
CENTER
 70
    0
  3
Center ____ _ ____ _ ____ _ ____ _ ____ _ ____
 72
   65
 73
    4
 40
50.8
 49
31.75
 74
    0
 49
-6.35
 74
    0
 49
6.35
 74
    0
 49
-6.35
 74
    0
  0
LTYPE
  5
47
330
5
100
AcDbSymbolTableRecord
100
AcDbLinetypeTableRecord
  2
CENTERTINY
 70
    0
  3
Center (.15x) ___ _ ___ _ ___ _ ___ _ ___ _ ___
 72
   65
 73
    4
 40
7.619999999999999
 49
4.7625
 74
    0
 49
-0.9525
 74
    0
 49
0.9525
 74
    0
 49
-0.9525
 74
    0
  0
LTYPE
  5
48
330
5
100
AcDbSymbolTableRecord
100
AcDbLinetypeTableRecord
  2
CENTER2
 70
    0
  3
Center (.5x) ___ _ ___ _ ___ _ ___ _ ___ _ ___
 72
   65
 73
    4
 40
28.575
 49
19.05
 74
    0
 49
-3.175
 74
    0
 49
3.175
 74
    0
 49
-3.175
 74
    0
  0
LTYPE
  5
49
330
5
100
AcDbSymbolTableRecord
100
AcDbLinetypeTableRecord
  2
CENTERX2
 70
    0
  3
Center (2x) ________  __  ________  __  _____
 72
   65
 73
    4
 40
101.6
 49
63.5
 74
    0
 49
-12.7
 74
    0
 49
12.7
 74
    0
 49
-12.7
 74
    0
  0
ENDTAB
  0
TABLE
  2
LAYER
  5
2
330
0
100
AcDbSymbolTable
 70
    1
  0
LAYER
  5
10
330
2
100
AcDbSymbolTableRecord
100
AcDbLayerTableRecord
  2
0
 70
    0
 62
    7
  6
CONTINUOUS
370
   -3
390
F
  0
ENDTAB
  0
TABLE
  2
STYLE
  5
3
330
0
100
AcDbSymbolTable
 70
    3
  0
STYLE
  5
4A
330
2
100
AcDbSymbolTableRecord
100
AcDbTextStyleTableRecord
  2
Standard
 70
    0
 40
0
 41
1
 50
0
 71
    0
 42
1
  3
txt
  4

  0
ENDTAB
  0
TABLE
  2
VIEW
  5
6
330
0
100
AcDbSymbolTable
 70
    0
  0
ENDTAB
  0
TABLE
  2
UCS
  5
7
330
0
100
AcDbSymbolTable
 70
    0
  0
ENDTAB
  0
TABLE
  2
APPID
  5
9
330
0
100
AcDbSymbolTable
 70
    1
  0
APPID
  5
12
330
9
100
AcDbSymbolTableRecord
100
AcDbRegAppTableRecord
  2
ACAD
 70
    0
  0
APPID
  5
4B
330
9
100
AcDbSymbolTableRecord
100
AcDbRegAppTableRecord
  2
LibreCad
 70
    0
  0
ENDTAB
  0
TABLE
  2
DIMSTYLE
  5
A
330
0
100
AcDbSymbolTable
 70
    1
100
AcDbDimStyleTable
 71
    1
  0
DIMSTYLE
105
4C
330
A
100
AcDbSymbolTableRecord
100
AcDbDimStyleTableRecord
  2
Standard
 70
    0
 40
1
 41
2.5
 42
0.625
 43
0.38
 44
1.25
 45
0
 46
0
 47
0
 48
0
 49
1
140
2.5
141
0.09
142
0
143
25.4
144
1
145
0
146
1
147
0.625
148
0
 71
    0
 72
    0
 73
    0
 74
    1
 75
    0
 76
    0
 77
    0
 78
    8
 79
    0
170
    0
171
    2
172
    0
173
    0
174
    0
175
    0
176
    0
177
    0
178
    0
179
    0
271
    2
272
    4
273
    2
274
    2
275
    0
276
    0
277
    2
278
   44
279
    0
280
    0
281
    0
282
    0
283
    1
284
    0
285
    0
286
    0
288
    0
289
    3
340
STANDARD
341

371
   -2
372
   -2
  0
ENDTAB
  0
TABLE
  2
BLOCK_RECORD
  5
1
330
0
100
AcDbSymbolTable
 70
    2
  0
BLOCK_RECORD
  5
1F
330
1
100
AcDbSymbolTableRecord
100
AcDbBlockTableRecord
  2
*Model_Space
 70
    0
280
    1
281
    0
  0
BLOCK_RECORD
  5
1E
330
1
100
AcDbSymbolTableRecord
100
AcDbBlockTableRecord
  2
*Paper_Space
 70
    0
280
    1
281
    0
  0
ENDTAB
  0
ENDSEC
  0
SECTION
  2
BLOCKS
  0
BLOCK
  5
20
330
1F
100
AcDbEntity
  8
0
100
AcDbBlockBegin
  2
*Model_Space
 70
    0
 10
0
 20
0
 30
0
  3
*Model_Space
  1

  0
ENDBLK
  5
21
330
1F
100
AcDbEntity
  8
0
100
AcDbBlockEnd
  0
BLOCK
  5
1C
330
1B
100
AcDbEntity
  8
0
100
AcDbBlockBegin
  2
*Paper_Space
 70
    0
 10
0
 20
0
 30
0
  3
*Paper_Space
  1

  0
ENDBLK
  5
1D
330
1F
100
AcDbEntity
  8
0
100
AcDbBlockEnd
  0
ENDSEC
  0
SECTION
  2
ENTITIES
  0
LINE
  5
4D
100
AcDbEntity
  8
0
  6
ByLayer
 62
  256
370
   -1
100
AcDbLine
 10
53.37998907023542
 20
29.0778125225383
 11
64.54419242981561
 21
29.0778125225383
  0
LINE
  5
4E
100
AcDbEntity
  8
0
  6
ByLayer
 62
  256
370
   -1
100
AcDbLine
 10
44.75220607023542
 20
34.37390702253829
 11
53.37998907023542
 21
29.0778125225383
  0
LINE
  5
4F
100
AcDbEntity
  8
0
  6
ByLayer
 62
  256
370
   -1
100
AcDbLine
 10
52.88950679375506
 20
23.07781252253829
 11
48.89937057023541
 21
6.807556022538293
  0
ARC
  5
50
100
AcDbEntity
  8
0
  6
ByLayer
 62
  256
370
   -1
100
AcDbCircle
 10
54.94877192081892
 20
23.07781252253829
 40
2.05926512706386
100
AcDbArc
 50
76.22066619435157
 51
180
  0
LINE
  5
51
100
AcDbEntity
  8
0
  6
ByLayer
 62
  256
370
   -1
100
AcDbLine
 10
55.43925419729928
 20
25.07781252253829
 11
62.48492730275174
 21
25.07781252253829
  0
LINE
  5
52
100
AcDbEntity
  8
0
  6
ByLayer
 62
    7
370
   -1
100
AcDbLine
 10
15.35151307023542
 20
37.90423452253829
 11
16.30915806681157
 21
37.99075987826653
  0
LINE
  5
53
100
AcDbEntity
  8
0
  6
ByLayer
 62
    7
370
   -1
100
AcDbLine
 10
16.30915806681157
 20
37.99075987826653
 11
17.26855946324002
 21
38.06564248282831
  0
LINE
  5
54
100
AcDbEntity
  8
0
  6
ByLayer
 62
    7
370
   -1
100
AcDbLine
 10
17.26855946324002
 20
38.06564248282831
 11
18.22947186957079
 21
38.12870464228923
  0
LINE
  5
55
100
AcDbEntity
  8
0
  6
ByLayer
 62
    7
370
   -1
100
AcDbLine
 10
18.22947186957079
 20
38.12870464228923
 11
19.1916498958539
 21
38.17976866271485
  0
LINE
  5
56
100
AcDbEntity
  8
0
  6
ByLayer
 62
    7
370
   -1
100
AcDbLine
 10
19.1916498958539
 20
38.17976866271485
 11
20.15484815213935
 21
38.2186568501708
  0
LINE
  5
57
100
AcDbEntity
  8
0
  6
ByLayer
 62
    7
370
   -1
100
AcDbLine
 10
20.15484815213935
 20
38.2186568501708
 11
21.11882124847717
 21
38.24519151072264
  0
LINE
  5
58
100
AcDbEntity
  8
0
  6
ByLayer
 62
    7
370
   -1
100
AcDbLine
 10
21.11882124847717
 20
38.24519151072264
 11
22.08332379491737
 21
38.25919495043597
  0
LINE
  5
59
100
AcDbEntity
  8
0
  6
ByLayer
 62
    7
370
   -1
100
AcDbLine
 10
22.08332379491737
 20
38.25919495043597
 11
23.04811040150997
 21
38.2604894753764
  0
LINE
  5
5A
100
AcDbEntity
  8
0
  6
ByLayer
 62
    7
370
   -1
100
AcDbLine
 10
23.04811040150997
 20
38.2604894753764
 11
24.01293567830496
 21
38.24889739160947
  0
LINE
  5
5B
100
AcDbEntity
  8
0
  6
ByLayer
 62
    7
370
   -1
100
AcDbLine
 10
24.01293567830496
 20
38.24889739160947
 11
24.9775542353524
 21
38.22424100520083
  0
LINE
  5
5C
100
AcDbEntity
  8
0
  6
ByLayer
 62
    7
370
   -1
100
AcDbLine
 10
24.9775542353524
 20
38.22424100520083
 11
25.94172068270227
 21
38.18634262221604
  0
LINE
  5
5D
100
AcDbEntity
  8
0
  6
ByLayer
 62
    7
370
   -1
100
AcDbLine
 10
25.94172068270227
 20
38.18634262221604
 11
26.90518963040459
 21
38.13502454872069
  0
LINE
  5
5E
100
AcDbEntity
  8
0
  6
ByLayer
 62
    7
370
   -1
100
AcDbLine
 10
26.90518963040459
 20
38.13502454872069
 11
27.86771568850939
 21
38.07010909078037
  0
LINE
  5
5F
100
AcDbEntity
  8
0
  6
ByLayer
 62
    7
370
   -1
100
AcDbLine
 10
27.86771568850939
 20
38.07010909078037
 11
28.82905346706667
 21
37.99141855446069
  0
LINE
  5
60
100
AcDbEntity
  8
0
  6
ByLayer
 62
    7
370
   -1
100
AcDbLine
 10
28.82905346706667
 20
37.99141855446069
 11
29.78895757612646
 21
37.8987752458272
  0
LINE
  5
61
100
AcDbEntity
  8
0
  6
ByLayer
 62
    7
370
   -1
100
AcDbLine
 10
29.78895757612646
 20
37.8987752458272
 11
30.74718262573875
 21
37.79200147094552
  0
LINE
  5
62
100
AcDbEntity
  8
0
  6
ByLayer
 62
    7
370
   -1
100
AcDbLine
 10
30.74718262573875
 20
37.79200147094552
 11
31.70348322595358
 21
37.67091953588125
  0
LINE
  5
63
100
AcDbEntity
  8
0
  6
ByLayer
 62
    7
370
   -1
100
AcDbLine
 10
31.70348322595358
 20
37.67091953588125
 11
32.65761398682096
 21
37.53535174669994
  0
LINE
  5
64
100
AcDbEntity
  8
0
  6
ByLayer
 62
    7
370
   -1
100
AcDbLine
 10
32.65761398682096
 20
37.53535174669994
 11
33.60932951839089
 21
37.38512040946723
  0
LINE
  5
65
100
AcDbEntity
  8
0
  6
ByLayer
 62
    7
370
   -1
100
AcDbLine
 10
33.60932951839089
 20
37.38512040946723
 11
34.5583844307134
 21
37.22004783024867
  0
LINE
  5
66
100
AcDbEntity
  8
0
  6
ByLayer
 62
    7
370
   -1
100
AcDbLine
 10
34.5583844307134
 20
37.22004783024867
 11
35.50453333383851
 21
37.03995631510988
  0
LINE
  5
67
100
AcDbEntity
  8
0
  6
ByLayer
 62
    7
370
   -1
100
AcDbLine
 10
35.50453333383851
 20
37.03995631510988
 11
36.44753083781622
 21
36.84466817011642
  0
LINE
  5
68
100
AcDbEntity
  8
0
  6
ByLayer
 62
    7
370
   -1
100
AcDbLine
 10
36.44753083781622
 20
36.84466817011642
 11
37.38713155269655
 21
36.6340057013339
  0
LINE
  5
69
100
AcDbEntity
  8
0
  6
ByLayer
 62
    7
370
   -1
100
AcDbLine
 10
37.38713155269655
 20
36.6340057013339
 11
38.32309008852952
 21
36.40779121482791
  0
LINE
  5
6A
100
AcDbEntity
  8
0
  6
ByLayer
 62
    7
370
   -1
100
AcDbLine
 10
38.32309008852952
 20
36.40779121482791
 11
39.25516105536514
 21
36.16584701666403
  0
LINE
  5
6B
100
AcDbEntity
  8
0
  6
ByLayer
 62
    7
370
   -1
100
AcDbLine
 10
39.25516105536514
 20
36.16584701666403
 11
40.18309906325342
 21
35.90799541290787
  0
LINE
  5
6C
100
AcDbEntity
  8
0
  6
ByLayer
 62
    7
370
   -1
100
AcDbLine
 10
40.18309906325342
 20
35.90799541290787
 11
41.1066587222444
 21
35.63405870962499
  0
LINE
  5
6D
100
AcDbEntity
  8
0
  6
ByLayer
 62
    7
370
   -1
100
AcDbLine
 10
41.1066587222444
 20
35.63405870962499
 11
42.02559464238807
 21
35.34385921288101
  0
LINE
  5
6E
100
AcDbEntity
  8
0
  6
ByLayer
 62
    7
370
   -1
100
AcDbLine
 10
42.02559464238807
 20
35.34385921288101
 11
42.93966143373444
 21
35.03721922874151
  0
LINE
  5
6F
100
AcDbEntity
  8
0
  6
ByLayer
 62
    7
370
   -1
100
AcDbLine
 10
42.93966143373444
 20
35.03721922874151
 11
43.84861370633354
 21
34.71396106327207
  0
LINE
  5
70
100
AcDbEntity
  8
0
  6
ByLayer
 62
    7
370
   -1
100
AcDbLine
 10
43.84861370633354
 20
34.71396106327207
 11
44.75220607023542
 21
34.37390702253829
  0
LINE
  5
71
100
AcDbEntity
  8
0
  6
ByLayer
 62
    7
370
   -1
100
AcDbLine
 10
-3.019859249974488
 20
22.41468475002551
 11
-3.010192099157127
 21
22.80552872807258
  0
LINE
  5
72
100
AcDbEntity
  8
0
  6
ByLayer
 62
    7
370
   -1
100
AcDbLine
 10
-3.010192099157127
 20
22.80552872807258
 11
-2.986288828034977
 21
23.19599062226881
  0
LINE
  5
73
100
AcDbEntity
  8
0
  6
ByLayer
 62
    7
370
   -1
100
AcDbLine
 10
-2.986288828034977
 20
23.19599062226881
 11
-2.948306386022288
 21
23.58554924366453
  0
LINE
  5
74
100
AcDbEntity
  8
0
  6
ByLayer
 62
    7
370
   -1
100
AcDbLine
 10
-2.948306386022288
 20
23.58554924366453
 11
-2.896401722533316
 21
23.97368340331006
  0
LINE
  5
75
100
AcDbEntity
  8
0
  6
ByLayer
 62
    7
370
   -1
100
AcDbLine
 10
-2.896401722533316
 20
23.97368340331006
 11
-2.83073178698231
 21
24.35987191225571
  0
LINE
  5
76
100
AcDbEntity
  8
0
  6
ByLayer
 62
    7
370
   -1
100
AcDbLine
 10
-2.83073178698231
 20
24.35987191225571
 11
-2.751453528783526
 21
24.74359358155181
  0
LINE
  5
77
100
AcDbEntity
  8
0
  6
ByLayer
 62
    7
370
   -1
100
AcDbLine
 10
-2.751453528783526
 20
24.74359358155181
 11
-2.658723897351214
 21
25.12432722224866
  0
LINE
  5
78
100
AcDbEntity
  8
0
  6
ByLayer
 62
    7
370
   -1
100
AcDbLine
 10
-2.658723897351214
 20
25.12432722224866
 11
-2.552699842099628
 21
25.5015516453966
  0
LINE
  5
79
100
AcDbEntity
  8
0
  6
ByLayer
 62
    7
370
   -1
100
AcDbLine
 10
-2.552699842099628
 20
25.5015516453966
 11
-2.43353831244302
 21
25.87474566204591
  0
LINE
  5
7A
100
AcDbEntity
  8
0
  6
ByLayer
 62
    7
370
   -1
100
AcDbLine
 10
-2.43353831244302
 20
25.87474566204591
 11
-2.301396257795643
 21
26.24338808324695
  0
LINE
  5
7B
100
AcDbEntity
  8
0
  6
ByLayer
 62
    7
370
   -1
100
AcDbLine
 10
-2.301396257795643
 20
26.24338808324695
 11
-2.156430627571751
 21
26.60695772005002
  0
LINE
  5
7C
100
AcDbEntity
  8
0
  6
ByLayer
 62
    7
370
   -1
100
AcDbLine
 10
-2.156430627571751
 20
26.60695772005002
 11
-1.998798371185594
 21
26.96493338350542
  0
LINE
  5
7D
100
AcDbEntity
  8
0
  6
ByLayer
 62
    7
370
   -1
100
AcDbLine
 10
-1.998798371185594
 20
26.96493338350542
 11
-1.828656438051426
 21
27.31679388466348
  0
LINE
  5
7E
100
AcDbEntity
  8
0
  6
ByLayer
 62
    7
370
   -1
100
AcDbLine
 10
-1.828656438051426
 20
27.31679388466348
 11
-1.6461617775835
 21
27.66201803457453
  0
LINE
  5
7F
100
AcDbEntity
  8
0
  6
ByLayer
 62
    7
370
   -1
100
AcDbLine
 10
-1.6461617775835
 20
27.66201803457453
 11
-1.451471339196068
 21
28.00008464428888
  0
LINE
  5
80
100
AcDbEntity
  8
0
  6
ByLayer
 62
    7
370
   -1
100
AcDbLine
 10
-1.451471339196068
 20
28.00008464428888
 11
-1.244742072303382
 21
28.33047252485683
  0
LINE
  5
81
100
AcDbEntity
  8
0
  6
ByLayer
 62
    7
370
   -1
100
AcDbLine
 10
-1.244742072303382
 20
28.33047252485683
 11
-1.026130926319696
 21
28.65266048732872
  0
LINE
  5
82
100
AcDbEntity
  8
0
  6
ByLayer
 62
    7
370
   -1
100
AcDbLine
 10
-1.026130926319696
 20
28.65266048732872
 11
-0.7957948506592624
 21
28.96612734275486
  0
LINE
  5
83
100
AcDbEntity
  8
0
  6
ByLayer
 62
    7
370
   -1
100
AcDbLine
 10
-0.7957948506592624
 20
28.96612734275486
 11
-0.5538907947363328
 21
29.27035190218555
  0
LINE
  5
84
100
AcDbEntity
  8
0
  6
ByLayer
 62
    7
370
   -1
100
AcDbLine
 10
-0.5538907947363328
 20
29.27035190218555
 11
-0.3005757079651606
 21
29.56481297667113
  0
LINE
  5
85
100
AcDbEntity
  8
0
  6
ByLayer
 62
    7
370
   -1
100
AcDbLine
 10
-0.3005757079651606
 20
29.56481297667113
 11
-0.03600653975999868
 21
29.84898937726192
  0
LINE
  5
86
100
AcDbEntity
  8
0
  6
ByLayer
 62
    7
370
   -1
100
AcDbLine
 10
-0.03600653975999868
 20
29.84898937726192
 11
0.2396597604649009
 21
30.12235991500822
  0
LINE
  5
87
100
AcDbEntity
  8
0
  6
ByLayer
 62
    7
370
   -1
100
AcDbLine
 10
0.2396597604649009
 20
30.12235991500822
 11
0.5262662432952856
 21
30.38440340096035
  0
LINE
  5
88
100
AcDbEntity
  8
0
  6
ByLayer
 62
    7
370
   -1
100
AcDbLine
 10
0.5262662432952856
 20
30.38440340096035
 11
0.8236559593169024
 21
30.63459864616864
  0
LINE
  5
89
100
AcDbEntity
  8
0
  6
ByLayer
 62
    7
370
   -1
100
AcDbLine
 10
0.8236559593169024
 20
30.63459864616864
 11
1.131671959115498
 21
30.87242446168339
  0
LINE
  5
8A
100
AcDbEntity
  8
0
  6
ByLayer
 62
    7
370
   -1
100
AcDbLine
 10
1.131671959115498
 20
30.87242446168339
 11
1.450157293276822
 21
31.09735965855493
  0
LINE
  5
8B
100
AcDbEntity
  8
0
  6
ByLayer
 62
    7
370
   -1
100
AcDbLine
 10
1.450157293276822
 20
31.09735965855493
 11
1.77895501238662
 21
31.30888304783357
  0
LINE
  5
8C
100
AcDbEntity
  8
0
  6
ByLayer
 62
    7
370
   -1
100
AcDbLine
 10
1.77895501238662
 20
31.30888304783357
 11
2.117908167030639
 21
31.50647344056963
  0
LINE
  5
8D
100
AcDbEntity
  8
0
  6
ByLayer
 62
    7
370
   -1
100
AcDbLine
 10
2.117908167030639
 20
31.50647344056963
 11
2.466859807794627
 21
31.68960964781343
  0
LINE
  5
8E
100
AcDbEntity
  8
0
  6
ByLayer
 62
    7
370
   -1
100
AcDbLine
 10
2.466859807794627
 20
31.68960964781343
 11
2.825652985264332
 21
31.85777048061528
  0
LINE
  5
8F
100
AcDbEntity
  8
0
  6
ByLayer
 62
    7
370
   -1
100
AcDbLine
 10
2.825652985264332
 20
31.85777048061528
 11
3.194130750025508
 21
32.01043475002551
  0
LINE
  5
90
100
AcDbEntity
  8
0
  6
ByLayer
 62
    7
370
   -1
100
AcDbLine
 10
3.194130750025508
 20
32.01043475002551
 11
3.599385042261418
 21
32.17645145070693
  0
LINE
  5
91
100
AcDbEntity
  8
0
  6
ByLayer
 62
    7
370
   -1
100
AcDbLine
 10
3.599385042261418
 20
32.17645145070693
 11
4.006871040045985
 21
32.33613037420731
  0
LINE
  5
92
100
AcDbEntity
  8
0
  6
ByLayer
 62
    7
370
   -1
100
AcDbLine
 10
4.006871040045985
 20
32.33613037420731
 11
4.416499554026717
 21
32.48963378496896
  0
LINE
  5
93
100
AcDbEntity
  8
0
  6
ByLayer
 62
    7
370
   -1
100
AcDbLine
 10
4.416499554026717
 20
32.48963378496896
 11
4.828181394851126
 21
32.63712394743413
  0
LINE
  5
94
100
AcDbEntity
  8
0
  6
ByLayer
 62
    7
370
   -1
100
AcDbLine
 10
4.828181394851126
 20
32.63712394743413
 11
5.241827373166724
 21
32.77876312604511
  0
LINE
  5
95
100
AcDbEntity
  8
0
  6
ByLayer
 62
    7
370
   -1
100
AcDbLine
 10
5.241827373166724
 20
32.77876312604511
 11
5.657348299621025
 21
32.91471358524421
  0
LINE
  5
96
100
AcDbEntity
  8
0
  6
ByLayer
 62
    7
370
   -1
100
AcDbLine
 10
5.657348299621025
 20
32.91471358524421
 11
6.074654984861532
 21
33.04513758947368
  0
LINE
  5
97
100
AcDbEntity
  8
0
  6
ByLayer
 62
    7
370
   -1
100
AcDbLine
 10
6.074654984861532
 20
33.04513758947368
 11
6.493658239535762
 21
33.17019740317579
  0
LINE
  5
98
100
AcDbEntity
  8
0
  6
ByLayer
 62
    7
370
   -1
100
AcDbLine
 10
6.493658239535762
 20
33.17019740317579
 11
6.914268874291225
 21
33.29005529079286
  0
LINE
  5
99
100
AcDbEntity
  8
0
  6
ByLayer
 62
    7
370
   -1
100
AcDbLine
 10
6.914268874291225
 20
33.29005529079286
 11
7.33639769977543
 21
33.40487351676715
  0
LINE
  5
9A
100
AcDbEntity
  8
0
  6
ByLayer
 62
    7
370
   -1
100
AcDbLine
 10
7.33639769977543
 20
33.40487351676715
 11
7.759955526635892
 21
33.51481434554094
  0
LINE
  5
9B
100
AcDbEntity
  8
0
  6
ByLayer
 62
    7
370
   -1
100
AcDbLine
 10
7.759955526635892
 20
33.51481434554094
 11
8.184853165520119
 21
33.62004004155651
  0
LINE
  5
9C
100
AcDbEntity
  8
0
  6
ByLayer
 62
    7
370
   -1
100
AcDbLine
 10
8.184853165520119
 20
33.62004004155651
 11
8.611001427075621
 21
33.72071286925615
  0
LINE
  5
9D
100
AcDbEntity
  8
0
  6
ByLayer
 62
    7
370
   -1
100
AcDbLine
 10
8.611001427075621
 20
33.72071286925615
 11
9.038311121949913
 21
33.81699509308215
  0
LINE
  5
9E
100
AcDbEntity
  8
0
  6
ByLayer
 62
    7
370
   -1
100
AcDbLine
 10
9.038311121949913
 20
33.81699509308215
 11
9.466693060790501
 21
33.90904897747676
  0
LINE
  5
9F
100
AcDbEntity
  8
0
  6
ByLayer
 62
    7
370
   -1
100
AcDbLine
 10
9.466693060790501
 20
33.90904897747676
 11
9.8960580542449
 21
33.99703678688228
  0
LINE
  5
A0
100
AcDbEntity
  8
0
  6
ByLayer
 62
    7
370
   -1
100
AcDbLine
 10
9.8960580542449
 20
33.99703678688228
 11
10.32631691296062
 21
34.081120785741
  0
LINE
  5
A1
100
AcDbEntity
  8
0
  6
ByLayer
 62
    7
370
   -1
100
AcDbLine
 10
10.32631691296062
 20
34.081120785741
 11
10.75738044758517
 21
34.16146323849519
  0
LINE
  5
A2
100
AcDbEntity
  8
0
  6
ByLayer
 62
    7
370
   -1
100
AcDbLine
 10
10.75738044758517
 20
34.16146323849519
 11
11.18915946876606
 21
34.23822640958713
  0
LINE
  5
A3
100
AcDbEntity
  8
0
  6
ByLayer
 62
    7
370
   -1
100
AcDbLine
 10
11.18915946876606
 20
34.23822640958713
 11
11.62156478715081
 21
34.3115725634591
  0
LINE
  5
A4
100
AcDbEntity
  8
0
  6
ByLayer
 62
    7
370
   -1
100
AcDbLine
 10
11.62156478715081
 20
34.3115725634591
 11
12.05450721338692
 21
34.3816639645534
  0
LINE
  5
A5
100
AcDbEntity
  8
0
  6
ByLayer
 62
    7
370
   -1
100
AcDbLine
 10
12.05450721338692
 20
34.3816639645534
 11
12.48789755812191
 21
34.44866287731228
  0
LINE
  5
A6
100
AcDbEntity
  8
0
  6
ByLayer
 62
    7
370
   -1
100
AcDbLine
 10
12.48789755812191
 20
34.44866287731228
 11
12.92164663200328
 21
34.51273156617805
  0
LINE
  5
A7
100
AcDbEntity
  8
0
  6
ByLayer
 62
    7
370
   -1
100
AcDbLine
 10
12.92164663200328
 20
34.51273156617805
 11
13.35566524567855
 21
34.57403229559297
  0
LINE
  5
A8
100
AcDbEntity
  8
0
  6
ByLayer
 62
    7
370
   -1
100
AcDbLine
 10
13.35566524567855
 20
34.57403229559297
 11
13.78986420979523
 21
34.63272732999933
  0
LINE
  5
A9
100
AcDbEntity
  8
0
  6
ByLayer
 62
    7
370
   -1
100
AcDbLine
 10
13.78986420979523
 20
34.63272732999933
 11
14.22415433500083
 21
34.68897893383942
  0
LINE
  5
AA
100
AcDbEntity
  8
0
  6
ByLayer
 62
    7
370
   -1
100
AcDbLine
 10
14.22415433500083
 20
34.68897893383942
 11
14.65844643194286
 21
34.74294937155551
  0
LINE
  5
AB
100
AcDbEntity
  8
0
  6
ByLayer
 62
    7
370
   -1
100
AcDbLine
 10
14.65844643194286
 20
34.74294937155551
 11
15.09265131126883
 21
34.79480090758989
  0
LINE
  5
AC
100
AcDbEntity
  8
0
  6
ByLayer
 62
    7
370
   -1
100
AcDbLine
 10
15.09265131126883
 20
34.79480090758989
 11
15.52667978362625
 21
34.84469580638482
  0
LINE
  5
AD
100
AcDbEntity
  8
0
  6
ByLayer
 62
    7
370
   -1
100
AcDbLine
 10
15.52667978362625
 20
34.84469580638482
 11
15.96044265966264
 21
34.89279633238261
  0
LINE
  5
AE
100
AcDbEntity
  8
0
  6
ByLayer
 62
    7
370
   -1
100
AcDbLine
 10
15.96044265966264
 20
34.89279633238261
 11
16.39385075002551
 21
34.93926475002552
  0
LINE
  5
AF
100
AcDbEntity
  8
0
  6
ByLayer
 62
    7
370
   -1
100
AcDbLine
 10
16.39385075002551
 20
34.93926475002552
 11
17.22658552965694
 21
35.01450418978921
  0
LINE
  5
B0
100
AcDbEntity
  8
0
  6
ByLayer
 62
    7
370
   -1
100
AcDbLine
 10
17.22658552965694
 20
35.01450418978921
 11
18.06084761350777
 21
35.0796194981038
  0
LINE
  5
B1
100
AcDbEntity
  8
0
  6
ByLayer
 62
    7
370
   -1
100
AcDbLine
 10
18.06084761350777
 20
35.0796194981038
 11
18.89642361901279
 21
35.13445615850459
  0
LINE
  5
B2
100
AcDbEntity
  8
0
  6
ByLayer
 62
    7
370
   -1
100
AcDbLine
 10
18.89642361901279
 20
35.13445615850459
 11
19.73310016360679
 21
35.17885965452688
  0
LINE
  5
B3
100
AcDbEntity
  8
0
  6
ByLayer
 62
    7
370
   -1
100
AcDbLine
 10
19.73310016360679
 20
35.17885965452688
 11
20.57066386472458
 21
35.21267546970596
  0
LINE
  5
B4
100
AcDbEntity
  8
0
  6
ByLayer
 62
    7
370
   -1
100
AcDbLine
 10
20.57066386472458
 20
35.21267546970596
 11
21.40890133980095
 21
35.23574908757713
  0
LINE
  5
B5
100
AcDbEntity
  8
0
  6
ByLayer
 62
    7
370
   -1
100
AcDbLine
 10
21.40890133980095
 20
35.23574908757713
 11
22.24759920627069
 21
35.24792599167568
  0
LINE
  5
B6
100
AcDbEntity
  8
0
  6
ByLayer
 62
    7
370
   -1
100
AcDbLine
 10
22.24759920627069
 20
35.24792599167568
 11
23.0865440815686
 21
35.24905166553692
  0
LINE
  5
B7
100
AcDbEntity
  8
0
  6
ByLayer
 62
    7
370
   -1
100
AcDbLine
 10
23.0865440815686
 20
35.24905166553692
 11
23.92552258312947
 21
35.23897159269611
  0
LINE
  5
B8
100
AcDbEntity
  8
0
  6
ByLayer
 62
    7
370
   -1
100
AcDbLine
 10
23.92552258312947
 20
35.23897159269611
 11
24.7643213283881
 21
35.21753125668859
  0
LINE
  5
B9
100
AcDbEntity
  8
0
  6
ByLayer
 62
    7
370
   -1
100
AcDbLine
 10
24.7643213283881
 20
35.21753125668859
 11
25.60272693477929
 21
35.18457614104965
  0
LINE
  5
BA
100
AcDbEntity
  8
0
  6
ByLayer
 62
    7
370
   -1
100
AcDbLine
 10
25.60272693477929
 20
35.18457614104965
 11
26.44052601973783
 21
35.13995172931456
  0
LINE
  5
BB
100
AcDbEntity
  8
0
  6
ByLayer
 62
    7
370
   -1
100
AcDbLine
 10
26.44052601973783
 20
35.13995172931456
 11
27.27750520069853
 21
35.08350350501863
  0
LINE
  5
BC
100
AcDbEntity
  8
0
  6
ByLayer
 62
    7
370
   -1
100
AcDbLine
 10
27.27750520069853
 20
35.08350350501863
 11
28.11345109509616
 21
35.01507695169716
  0
LINE
  5
BD
100
AcDbEntity
  8
0
  6
ByLayer
 62
    7
370
   -1
100
AcDbLine
 10
28.11345109509616
 20
35.01507695169716
 11
28.94815032036554
 21
34.93451755288544
  0
LINE
  5
BE
100
AcDbEntity
  8
0
  6
ByLayer
 62
    7
370
   -1
100
AcDbLine
 10
28.94815032036554
 20
34.93451755288544
 11
29.78138949394145
 21
34.84167079211876
  0
LINE
  5
BF
100
AcDbEntity
  8
0
  6
ByLayer
 62
    7
370
   -1
100
AcDbLine
 10
29.78138949394145
 20
34.84167079211876
 11
30.6129552332587
 21
34.73638215293243
  0
LINE
  5
C0
100
AcDbEntity
  8
0
  6
ByLayer
 62
    7
370
   -1
100
AcDbLine
 10
30.6129552332587
 20
34.73638215293243
 11
31.44263415575207
 21
34.61849711886174
  0
LINE
  5
C1
100
AcDbEntity
  8
0
  6
ByLayer
 62
    7
370
   -1
100
AcDbLine
 10
31.44263415575207
 20
34.61849711886174
 11
32.27021287885636
 21
34.48786117344198
  0
LINE
  5
C2
100
AcDbEntity
  8
0
  6
ByLayer
 62
    7
370
   -1
100
AcDbLine
 10
32.27021287885636
 20
34.48786117344198
 11
33.09547802000637
 21
34.34431980020845
  0
LINE
  5
C3
100
AcDbEntity
  8
0
  6
ByLayer
 62
    7
370
   -1
100
AcDbLine
 10
33.09547802000637
 20
34.34431980020845
 11
33.9182161966369
 21
34.18771848269645
  0
LINE
  5
C4
100
AcDbEntity
  8
0
  6
ByLayer
 62
    7
370
   -1
100
AcDbLine
 10
33.9182161966369
 20
34.18771848269645
 11
34.73821402618273
 21
34.01790270444128
  0
LINE
  5
C5
100
AcDbEntity
  8
0
  6
ByLayer
 62
    7
370
   -1
100
AcDbLine
 10
34.73821402618273
 20
34.01790270444128
 11
35.55525812607867
 21
33.83471794897822
  0
LINE
  5
C6
100
AcDbEntity
  8
0
  6
ByLayer
 62
    7
370
   -1
100
AcDbLine
 10
35.55525812607867
 20
33.83471794897822
 11
36.36913511375951
 21
33.63800969984257
  0
LINE
  5
C7
100
AcDbEntity
  8
0
  6
ByLayer
 62
    7
370
   -1
100
AcDbLine
 10
36.36913511375951
 20
33.63800969984257
 11
37.17963160666005
 21
33.42762344056963
  0
LINE
  5
C8
100
AcDbEntity
  8
0
  6
ByLayer
 62
    7
370
   -1
100
AcDbLine
 10
37.17963160666005
 20
33.42762344056963
 11
37.98653422221508
 21
33.20340465469471
  0
LINE
  5
C9
100
AcDbEntity
  8
0
  6
ByLayer
 62
    7
370
   -1
100
AcDbLine
 10
37.98653422221508
 20
33.20340465469471
 11
38.78962957785941
 21
32.96519882575308
  0
LINE
  5
CA
100
AcDbEntity
  8
0
  6
ByLayer
 62
    7
370
   -1
100
AcDbLine
 10
38.78962957785941
 20
32.96519882575308
 11
39.58870429102781
 21
32.71285143728005
  0
LINE
  5
CB
100
AcDbEntity
  8
0
  6
ByLayer
 62
    7
370
   -1
100
AcDbLine
 10
39.58870429102781
 20
32.71285143728005
 11
40.38354497915509
 21
32.44620797281092
  0
LINE
  5
CC
100
AcDbEntity
  8
0
  6
ByLayer
 62
    7
370
   -1
100
AcDbLine
 10
40.38354497915509
 20
32.44620797281092
 11
41.17393825967606
 21
32.16511391588097
  0
LINE
  5
CD
100
AcDbEntity
  8
0
  6
ByLayer
 62
    7
370
   -1
100
AcDbLine
 10
41.17393825967606
 20
32.16511391588097
 11
41.95967075002551
 21
31.86941475002551
  0
LINE
  5
CE
100
AcDbEntity
  8
0
  6
ByLayer
 62
    7
370
   -1
100
AcDbLine
 10
41.95967075002551
 20
31.86941475002551
 11
42.2502662526941
 21
31.73997156147864
  0
LINE
  5
CF
100
AcDbEntity
  8
0
  6
ByLayer
 62
    7
370
   -1
100
AcDbLine
 10
42.2502662526941
 20
31.73997156147864
 11
42.54469774744084
 21
31.60931411157767
  0
LINE
  5
D0
100
AcDbEntity
  8
0
  6
ByLayer
 62
    7
370
   -1
100
AcDbLine
 10
42.54469774744084
 20
31.60931411157767
 11
42.84223335953845
 21
31.47704928360949
  0
LINE
  5
D1
100
AcDbEntity
  8
0
  6
ByLayer
 62
    7
370
   -1
100
AcDbLine
 10
42.84223335953845
 20
31.47704928360949
 11
43.14214121425968
 21
31.342783960861
  0
LINE
  5
D2
100
AcDbEntity
  8
0
  6
ByLayer
 62
    7
370
   -1
100
AcDbLine
 10
43.14214121425968
 20
31.342783960861
 11
43.44368943687724
 21
31.20612502661912
  0
LINE
  5
D3
100
AcDbEntity
  8
0
  6
ByLayer
 62
    7
370
   -1
100
AcDbLine
 10
43.44368943687724
 20
31.20612502661912
 11
43.74614615266389
 21
31.06667936417073
  0
LINE
  5
D4
100
AcDbEntity
  8
0
  6
ByLayer
 62
    7
370
   -1
100
AcDbLine
 10
43.74614615266389
 20
31.06667936417073
 11
44.04877948689235
 21
30.92405385680273
  0
LINE
  5
D5
100
AcDbEntity
  8
0
  6
ByLayer
 62
    7
370
   -1
100
AcDbLine
 10
44.04877948689235
 20
30.92405385680273
 11
44.35085756483535
 21
30.77785538780202
  0
LINE
  5
D6
100
AcDbEntity
  8
0
  6
ByLayer
 62
    7
370
   -1
100
AcDbLine
 10
44.35085756483535
 20
30.77785538780202
 11
44.65164851176562
 21
30.62769084045551
  0
LINE
  5
D7
100
AcDbEntity
  8
0
  6
ByLayer
 62
    7
370
   -1
100
AcDbLine
 10
44.65164851176562
 20
30.62769084045551
 11
44.95042045295592
 21
30.47316709805008
  0
LINE
  5
D8
100
AcDbEntity
  8
0
  6
ByLayer
 62
    7
370
   -1
100
AcDbLine
 10
44.95042045295592
 20
30.47316709805008
 11
45.24644151367896
 21
30.31389104387265
  0
LINE
  5
D9
100
AcDbEntity
  8
0
  6
ByLayer
 62
    7
370
   -1
100
AcDbLine
 10
45.24644151367896
 20
30.31389104387265
 11
45.53897981920748
 21
30.1494695612101
  0
LINE
  5
DA
100
AcDbEntity
  8
0
  6
ByLayer
 62
    7
370
   -1
100
AcDbLine
 10
45.53897981920748
 20
30.1494695612101
 11
45.8273034948142
 21
29.97950953334934
  0
LINE
  5
DB
100
AcDbEntity
  8
0
  6
ByLayer
 62
    7
370
   -1
100
AcDbLine
 10
45.8273034948142
 20
29.97950953334934
 11
46.11068066577187
 21
29.80361784357726
  0
LINE
  5
DC
100
AcDbEntity
  8
0
  6
ByLayer
 62
    7
370
   -1
100
AcDbLine
 10
46.11068066577187
 20
29.80361784357726
 11
46.38837945735323
 21
29.62140137518077
  0
LINE
  5
DD
100
AcDbEntity
  8
0
  6
ByLayer
 62
    7
370
   -1
100
AcDbLine
 10
46.38837945735323
 20
29.62140137518077
 11
46.65966799483098
 21
29.43246701144675
  0
LINE
  5
DE
100
AcDbEntity
  8
0
  6
ByLayer
 62
    7
370
   -1
100
AcDbLine
 10
46.65966799483098
 20
29.43246701144675
 11
46.92381440347789
 21
29.23642163566212
  0
LINE
  5
DF
100
AcDbEntity
  8
0
  6
ByLayer
 62
    7
370
   -1
100
AcDbLine
 10
46.92381440347789
 20
29.23642163566212
 11
47.18008680856668
 21
29.03287213111376
  0
LINE
  5
E0
100
AcDbEntity
  8
0
  6
ByLayer
 62
    7
370
   -1
100
AcDbLine
 10
47.18008680856668
 20
29.03287213111376
 11
47.42775333537008
 21
28.82142538108859
  0
LINE
  5
E1
100
AcDbEntity
  8
0
  6
ByLayer
 62
    7
370
   -1
100
AcDbLine
 10
47.42775333537008
 20
28.82142538108859
 11
47.66608210916081
 21
28.60168826887348
  0
LINE
  5
E2
100
AcDbEntity
  8
0
  6
ByLayer
 62
    7
370
   -1
100
AcDbLine
 10
47.66608210916081
 20
28.60168826887348
 11
47.89434125521164
 21
28.37326767775536
  0
LINE
  5
E3
100
AcDbEntity
  8
0
  6
ByLayer
 62
    7
370
   -1
100
AcDbLine
 10
47.89434125521164
 20
28.37326767775536
 11
48.11179889879527
 21
28.13577049102112
  0
LINE
  5
E4
100
AcDbEntity
  8
0
  6
ByLayer
 62
    7
370
   -1
100
AcDbLine
 10
48.11179889879527
 20
28.13577049102112
 11
48.31772316518445
 21
27.88880359195764
  0
LINE
  5
E5
100
AcDbEntity
  8
0
  6
ByLayer
 62
    7
370
   -1
100
AcDbLine
 10
48.31772316518445
 20
27.88880359195764
 11
48.5113821796519
 21
27.63197386385184
  0
LINE
  5
E6
100
AcDbEntity
  8
0
  6
ByLayer
 62
    7
370
   -1
100
AcDbLine
 10
48.5113821796519
 20
27.63197386385184
 11
48.69204406747038
 21
27.3648881899906
  0
LINE
  5
E7
100
AcDbEntity
  8
0
  6
ByLayer
 62
    7
370
   -1
100
AcDbLine
 10
48.69204406747038
 20
27.3648881899906
 11
48.85897695391258
 21
27.08715345366084
  0
LINE
  5
E8
100
AcDbEntity
  8
0
  6
ByLayer
 62
    7
370
   -1
100
AcDbLine
 10
48.85897695391258
 20
27.08715345366084
 11
49.01144896425128
 21
26.79837653814945
  0
LINE
  5
E9
100
AcDbEntity
  8
0
  6
ByLayer
 62
    7
370
   -1
100
AcDbLine
 10
49.01144896425128
 20
26.79837653814945
 11
49.14872822375919
 21
26.49816432674331
  0
LINE
  5
EA
100
AcDbEntity
  8
0
  6
ByLayer
 62
    7
370
   -1
100
AcDbLine
 10
49.14872822375919
 20
26.49816432674331
 11
49.27008285770903
 21
26.18612370272935
  0
LINE
  5
EB
100
AcDbEntity
  8
0
  6
ByLayer
 62
    7
370
   -1
100
AcDbLine
 10
49.27008285770903
 20
26.18612370272935
 11
49.37478099137356
 21
25.86186154939445
  0
LINE
  5
EC
100
AcDbEntity
  8
0
  6
ByLayer
 62
    7
370
   -1
100
AcDbLine
 10
49.37478099137356
 20
25.86186154939445
 11
49.46209075002551
 21
25.52498475002551
  0
LINE
  5
ED
100
AcDbEntity
  8
0
  6
ByLayer
 62
    7
370
   -1
100
AcDbLine
 10
49.46209075002551
 20
25.52498475002551
 11
49.51853972824042
 21
24.93377777442886
  0
LINE
  5
EE
100
AcDbEntity
  8
0
  6
ByLayer
 62
    7
370
   -1
100
AcDbLine
 10
49.51853972824042
 20
24.93377777442886
 11
49.55664711268538
 21
24.34374018354571
  0
LINE
  5
EF
100
AcDbEntity
  8
0
  6
ByLayer
 62
    7
370
   -1
100
AcDbLine
 10
49.55664711268538
 20
24.34374018354571
 11
49.57705422322212
 21
23.75490698123628
  0
LINE
  5
F0
100
AcDbEntity
  8
0
  6
ByLayer
 62
    7
370
   -1
100
AcDbLine
 10
49.57705422322212
 20
23.75490698123628
 11
49.58040237971233
 21
23.16731317136081
  0
LINE
  5
F1
100
AcDbEntity
  8
0
  6
ByLayer
 62
    7
370
   -1
100
AcDbLine
 10
49.58040237971233
 20
23.16731317136081
 11
49.56733290201772
 21
22.58099375777953
  0
LINE
  5
F2
100
AcDbEntity
  8
0
  6
ByLayer
 62
    7
370
   -1
100
AcDbLine
 10
49.56733290201772
 20
22.58099375777953
 11
49.53848711
 21
21.99598374435266
  0
LINE
  5
F3
100
AcDbEntity
  8
0
  6
ByLayer
 62
    7
370
   -1
100
AcDbLine
 10
49.53848711
 20
21.99598374435266
 11
49.49450632352086
 21
21.41231813494042
  0
LINE
  5
F4
100
AcDbEntity
  8
0
  6
ByLayer
 62
    7
370
   -1
100
AcDbLine
 10
49.49450632352086
 20
21.41231813494042
 11
49.43603186244201
 21
20.83003193340304
  0
LINE
  5
F5
100
AcDbEntity
  8
0
  6
ByLayer
 62
    7
370
   -1
100
AcDbLine
 10
49.43603186244201
 20
20.83003193340304
 11
49.36370504662515
 21
20.24916014360075
  0
LINE
  5
F6
100
AcDbEntity
  8
0
  6
ByLayer
 62
    7
370
   -1
100
AcDbLine
 10
49.36370504662515
 20
20.24916014360075
 11
49.27816719593199
 21
19.66973776939377
  0
LINE
  5
F7
100
AcDbEntity
  8
0
  6
ByLayer
 62
    7
370
   -1
100
AcDbLine
 10
49.27816719593199
 20
19.66973776939377
 11
49.18005963022423
 21
19.09179981464234
  0
LINE
  5
F8
100
AcDbEntity
  8
0
  6
ByLayer
 62
    7
370
   -1
100
AcDbLine
 10
49.18005963022423
 20
19.09179981464234
 11
49.07002366936356
 21
18.51538128320668
  0
LINE
  5
F9
100
AcDbEntity
  8
0
  6
ByLayer
 62
    7
370
   -1
100
AcDbLine
 10
49.07002366936356
 20
18.51538128320668
 11
48.94870063321171
 21
17.940517178947
  0
LINE
  5
FA
100
AcDbEntity
  8
0
  6
ByLayer
 62
    7
370
   -1
100
AcDbLine
 10
48.94870063321171
 20
17.940517178947
 11
48.81673184163036
 21
17.36724250572354
  0
LINE
  5
FB
100
AcDbEntity
  8
0
  6
ByLayer
 62
    7
370
   -1
100
AcDbLine
 10
48.81673184163036
 20
17.36724250572354
 11
48.67475861448122
 21
16.79559226739653
  0
LINE
  5
FC
100
AcDbEntity
  8
0
  6
ByLayer
 62
    7
370
   -1
100
AcDbLine
 10
48.67475861448122
 20
16.79559226739653
 11
48.523422271626
 21
16.22560146782619
  0
LINE
  5
FD
100
AcDbEntity
  8
0
  6
ByLayer
 62
    7
370
   -1
100
AcDbLine
 10
48.523422271626
 20
16.22560146782619
 11
48.36336413292639
 21
15.65730511087275
  0
LINE
  5
FE
100
AcDbEntity
  8
0
  6
ByLayer
 62
    7
370
   -1
100
AcDbLine
 10
48.36336413292639
 20
15.65730511087275
 11
48.1952255182441
 21
15.09073820039644
  0
LINE
  5
FF
100
AcDbEntity
  8
0
  6
ByLayer
 62
    7
370
   -1
100
AcDbLine
 10
48.1952255182441
 20
15.09073820039644
 11
48.01964774744084
 21
14.52593574025747
  0
LINE
  5
100
100
AcDbEntity
  8
0
  6
ByLayer
 62
    7
370
   -1
100
AcDbLine
 10
48.01964774744084
 20
14.52593574025747
 11
47.8372721403783
 21
13.96293273431607
  0
LINE
  5
101
100
AcDbEntity
  8
0
  6
ByLayer
 62
    7
370
   -1
100
AcDbLine
 10
47.8372721403783
 20
13.96293273431607
 11
47.6487400169182
 21
13.40176418643249
  0
LINE
  5
102
100
AcDbEntity
  8
0
  6
ByLayer
 62
    7
370
   -1
100
AcDbLine
 10
47.6487400169182
 20
13.40176418643249
 11
47.45469269692222
 21
12.84246510046693
  0
LINE
  5
103
100
AcDbEntity
  8
0
  6
ByLayer
 62
    7
370
   -1
100
AcDbLine
 10
47.45469269692222
 20
12.84246510046693
 11
47.2557715002521
 21
12.28507048027962
  0
LINE
  5
104
100
AcDbEntity
  8
0
  6
ByLayer
 62
    7
370
   -1
100
AcDbLine
 10
47.2557715002521
 20
12.28507048027962
 11
47.0526177467695
 21
11.7296153297308
  0
LINE
  5
105
100
AcDbEntity
  8
0
  6
ByLayer
 62
    7
370
   -1
100
AcDbLine
 10
47.0526177467695
 20
11.7296153297308
 11
46.84587275633614
 21
11.17613465268068
  0
LINE
  5
106
100
AcDbEntity
  8
0
  6
ByLayer
 62
    7
370
   -1
100
AcDbLine
 10
46.84587275633614
 20
11.17613465268068
 11
46.63617784881374
 21
10.6246634529895
  0
LINE
  5
107
100
AcDbEntity
  8
0
  6
ByLayer
 62
    7
370
   -1
100
AcDbLine
 10
46.63617784881374
 20
10.6246634529895
 11
46.42417434406399
 21
10.07523673451748
  0
LINE
  5
108
100
AcDbEntity
  8
0
  6
ByLayer
 62
    7
370
   -1
100
AcDbLine
 10
46.42417434406399
 20
10.07523673451748
 11
46.21050356194858
 21
9.527889501124847
  0
LINE
  5
109
100
AcDbEntity
  8
0
  6
ByLayer
 62
    7
370
   -1
100
AcDbLine
 10
46.21050356194858
 20
9.527889501124847
 11
45.99580682232923
 21
8.982656756671824
  0
LINE
  5
10A
100
AcDbEntity
  8
0
  6
ByLayer
 62
    7
370
   -1
100
AcDbLine
 10
45.99580682232923
 20
8.982656756671824
 11
45.78072544506765
 21
8.439573505018641
  0
LINE
  5
10B
100
AcDbEntity
  8
0
  6
ByLayer
 62
    7
370
   -1
100
AcDbLine
 10
45.78072544506765
 20
8.439573505018641
 11
45.56590075002551
 21
7.898674750025512
  0
LINE
  5
10C
100
AcDbEntity
  8
0
  6
ByLayer
 62
    7
370
   -1
100
AcDbLine
 10
45.56590075002551
 20
7.898674750025512
 11
45.35859589386091
 21
7.440963122352725
  0
LINE
  5
10D
100
AcDbEntity
  8
0
  6
ByLayer
 62
    7
370
   -1
100
AcDbLine
 10
45.35859589386091
 20
7.440963122352725
 11
45.14118090174919
 21
6.985642352992853
  0
LINE
  5
10E
100
AcDbEntity
  8
0
  6
ByLayer
 62
    7
370
   -1
100
AcDbLine
 10
45.14118090174919
 20
6.985642352992853
 11
44.91367739632808
 21
6.533295870498138
  0
LINE
  5
10F
100
AcDbEntity
  8
0
  6
ByLayer
 62
    7
370
   -1
100
AcDbLine
 10
44.91367739632808
 20
6.533295870498138
 11
44.67610700023531
 21
6.084507103420832
  0
LINE
  5
110
100
AcDbEntity
  8
0
  6
ByLayer
 62
    7
370
   -1
100
AcDbLine
 10
44.67610700023531
 20
6.084507103420832
 11
44.42849133610855
 21
5.639859480313183
  0
LINE
  5
111
100
AcDbEntity
  8
0
  6
ByLayer
 62
    7
370
   -1
100
AcDbLine
 10
44.42849133610855
 20
5.639859480313183
 11
44.17085202658555
 21
5.199936429727435
  0
LINE
  5
112
100
AcDbEntity
  8
0
  6
ByLayer
 62
    7
370
   -1
100
AcDbLine
 10
44.17085202658555
 20
5.199936429727435
 11
43.90321069430398
 21
4.765321380215838
  0
LINE
  5
113
100
AcDbEntity
  8
0
  6
ByLayer
 62
    7
370
   -1
100
AcDbLine
 10
43.90321069430398
 20
4.765321380215838
 11
43.62558896190158
 21
4.336597760330638
  0
LINE
  5
114
100
AcDbEntity
  8
0
  6
ByLayer
 62
    7
370
   -1
100
AcDbLine
 10
43.62558896190158
 20
4.336597760330638
 11
43.33800845201604
 21
3.914348998624083
  0
LINE
  5
115
100
AcDbEntity
  8
0
  6
ByLayer
 62
    7
370
   -1
100
AcDbLine
 10
43.33800845201604
 20
3.914348998624083
 11
43.04049078728508
 21
3.499158523648419
  0
LINE
  5
116
100
AcDbEntity
  8
0
  6
ByLayer
 62
    7
370
   -1
100
AcDbLine
 10
43.04049078728508
 20
3.499158523648419
 11
42.73305759034642
 21
3.091609763955895
  0
LINE
  5
117
100
AcDbEntity
  8
0
  6
ByLayer
 62
    7
370
   -1
100
AcDbLine
 10
42.73305759034642
 20
3.091609763955895
 11
42.41573048383774
 21
2.692286148098757
  0
LINE
  5
118
100
AcDbEntity
  8
0
  6
ByLayer
 62
    7
370
   -1
100
AcDbLine
 10
42.41573048383774
 20
2.692286148098757
 11
42.08853109039676
 21
2.301771104629254
  0
LINE
  5
119
100
AcDbEntity
  8
0
  6
ByLayer
 62
    7
370
   -1
100
AcDbLine
 10
42.08853109039676
 20
2.301771104629254
 11
41.75148103266121
 21
1.920648062099631
  0
LINE
  5
11A
100
AcDbEntity
  8
0
  6
ByLayer
 62
    7
370
   -1
100
AcDbLine
 10
41.75148103266121
 20
1.920648062099631
 11
41.40460193326877
 21
1.549500449062136
  0
LINE
  5
11B
100
AcDbEntity
  8
0
  6
ByLayer
 62
    7
370
   -1
100
AcDbLine
 10
41.40460193326877
 20
1.549500449062136
 11
41.04791541485717
 21
1.188911694069018
  0
LINE
  5
11C
100
AcDbEntity
  8
0
  6
ByLayer
 62
    7
370
   -1
100
AcDbLine
 10
41.04791541485717
 20
1.188911694069018
 11
40.68144310006411
 21
0.8394652256725226
  0
LINE
  5
11D
100
AcDbEntity
  8
0
  6
ByLayer
 62
    7
370
   -1
100
AcDbLine
 10
40.68144310006411
 20
0.8394652256725226
 11
40.30520661152732
 21
0.5017444724248973
  0
LINE
  5
11E
100
AcDbEntity
  8
0
  6
ByLayer
 62
    7
370
   -1
100
AcDbLine
 10
40.30520661152732
 20
0.5017444724248973
 11
39.91922757188446
 21
0.1763328628783903
  0
LINE
  5
11F
100
AcDbEntity
  8
0
  6
ByLayer
 62
    7
370
   -1
100
AcDbLine
 10
39.91922757188446
 20
0.1763328628783903
 11
39.52352760377329
 21
-0.1361861744147519
  0
LINE
  5
120
100
AcDbEntity
  8
0
  6
ByLayer
 62
    7
370
   -1
100
AcDbLine
 10
39.52352760377329
 20
-0.1361861744147519
 11
39.1181283298315
 21
-0.4352292109022816
  0
LINE
  5
121
100
AcDbEntity
  8
0
  6
ByLayer
 62
    7
370
   -1
100
AcDbLine
 10
39.1181283298315
 20
-0.4352292109022816
 11
38.7030513726968
 21
-0.7202128180319516
  0
LINE
  5
122
100
AcDbEntity
  8
0
  6
ByLayer
 62
    7
370
   -1
100
AcDbLine
 10
38.7030513726968
 20
-0.7202128180319516
 11
38.27831835500689
 21
-0.9905535672515148
  0
LINE
  5
123
100
AcDbEntity
  8
0
  6
ByLayer
 62
    7
370
   -1
100
AcDbLine
 10
38.27831835500689
 20
-0.9905535672515148
 11
37.84395089939949
 21
-1.245668030008723
  0
LINE
  5
124
100
AcDbEntity
  8
0
  6
ByLayer
 62
    7
370
   -1
100
AcDbLine
 10
37.84395089939949
 20
-1.245668030008723
 11
37.39997062851231
 21
-1.48497277775133
  0
LINE
  5
125
100
AcDbEntity
  8
0
  6
ByLayer
 62
    7
370
   -1
100
AcDbLine
 10
37.39997062851231
 20
-1.48497277775133
 11
36.94639916498306
 21
-1.707884381927088
  0
LINE
  5
126
100
AcDbEntity
  8
0
  6
ByLayer
 62
    7
370
   -1
100
AcDbLine
 10
36.94639916498306
 20
-1.707884381927088
 11
36.48325813144945
 21
-1.91381941398375
  0
LINE
  5
127
100
AcDbEntity
  8
0
  6
ByLayer
 62
    7
370
   -1
100
AcDbLine
 10
36.48325813144945
 20
-1.91381941398375
 11
36.01056915054917
 21
-2.102194445369068
  0
LINE
  5
128
100
AcDbEntity
  8
0
  6
ByLayer
 62
    7
370
   -1
100
AcDbLine
 10
36.01056915054917
 20
-2.102194445369068
 11
35.52835384491995
 21
-2.272426047530794
  0
LINE
  5
129
100
AcDbEntity
  8
0
  6
ByLayer
 62
    7
370
   -1
100
AcDbLine
 10
35.52835384491995
 20
-2.272426047530794
 11
35.0366338371995
 21
-2.423930791916683
  0
LINE
  5
12A
100
AcDbEntity
  8
0
  6
ByLayer
 62
    7
370
   -1
100
AcDbLine
 10
35.0366338371995
 20
-2.423930791916683
 11
34.53543075002551
 21
-2.556125249974489
  0
LINE
  5
12B
100
AcDbEntity
  8
0
  6
ByLayer
 62
    7
370
   -1
100
AcDbLine
 10
34.53543075002551
 20
-2.556125249974489
 11
33.73983014749455
 21
-2.799236594340238
  0
LINE
  5
12C
100
AcDbEntity
  8
0
  6
ByLayer
 62
    7
370
   -1
100
AcDbLine
 10
33.73983014749455
 20
-2.799236594340238
 11
32.93951989439798
 21
-3.028705661508174
  0
LINE
  5
12D
100
AcDbEntity
  8
0
  6
ByLayer
 62
    7
370
   -1
100
AcDbLine
 10
32.93951989439798
 20
-3.028705661508174
 11
32.13480280635125
 21
-3.244411776777886
  0
LINE
  5
12E
100
AcDbEntity
  8
0
  6
ByLayer
 62
    7
370
   -1
100
AcDbLine
 10
32.13480280635125
 20
-3.244411776777886
 11
31.32598169896982
 21
-3.446234265448961
  0
LINE
  5
12F
100
AcDbEntity
  8
0
  6
ByLayer
 62
    7
370
   -1
100
AcDbLine
 10
31.32598169896982
 20
-3.446234265448961
 11
30.51335938786916
 21
-3.634052452820986
  0
LINE
  5
130
100
AcDbEntity
  8
0
  6
ByLayer
 62
    7
370
   -1
100
AcDbLine
 10
30.51335938786916
 20
-3.634052452820986
 11
29.6972386886647
 21
-3.807745664193548
  0
LINE
  5
131
100
AcDbEntity
  8
0
  6
ByLayer
 62
    7
370
   -1
100
AcDbLine
 10
29.6972386886647
 20
-3.807745664193548
 11
28.87792241697191
 21
-3.967193224866234
  0
LINE
  5
132
100
AcDbEntity
  8
0
  6
ByLayer
 62
    7
370
   -1
100
AcDbLine
 10
28.87792241697191
 20
-3.967193224866234
 11
28.05571338840623
 21
-4.112274460138631
  0
LINE
  5
133
100
AcDbEntity
  8
0
  6
ByLayer
 62
    7
370
   -1
100
AcDbLine
 10
28.05571338840623
 20
-4.112274460138631
 11
27.23091441858313
 21
-4.242868695310328
  0
LINE
  5
134
100
AcDbEntity
  8
0
  6
ByLayer
 62
    7
370
   -1
100
AcDbLine
 10
27.23091441858313
 20
-4.242868695310328
 11
26.40382832311806
 21
-4.358855255680909
  0
LINE
  5
135
100
AcDbEntity
  8
0
  6
ByLayer
 62
    7
370
   -1
100
AcDbLine
 10
26.40382832311806
 20
-4.358855255680909
 11
25.57475791762647
 21
-4.460113466549964
  0
LINE
  5
136
100
AcDbEntity
  8
0
  6
ByLayer
 62
    7
370
   -1
100
AcDbLine
 10
25.57475791762647
 20
-4.460113466549964
 11
24.74400601772381
 21
-4.546522653217078
  0
LINE
  5
137
100
AcDbEntity
  8
0
  6
ByLayer
 62
    7
370
   -1
100
AcDbLine
 10
24.74400601772381
 20
-4.546522653217078
 11
23.91187543902555
 21
-4.617962140981839
  0
LINE
  5
138
100
AcDbEntity
  8
0
  6
ByLayer
 62
    7
370
   -1
100
AcDbLine
 10
23.91187543902555
 20
-4.617962140981839
 11
23.07866899714713
 21
-4.674311255143834
  0
LINE
  5
139
100
AcDbEntity
  8
0
  6
ByLayer
 62
    7
370
   -1
100
AcDbLine
 10
23.07866899714713
 20
-4.674311255143834
 11
22.24468950770401
 21
-4.715449321002651
  0
LINE
  5
13A
100
AcDbEntity
  8
0
  6
ByLayer
 62
    7
370
   -1
100
AcDbLine
 10
22.24468950770401
 20
-4.715449321002651
 11
21.41023978631164
 21
-4.741255663857876
  0
LINE
  5
13B
100
AcDbEntity
  8
0
  6
ByLayer
 62
    7
370
   -1
100
AcDbLine
 10
21.41023978631164
 20
-4.741255663857876
 11
20.57562264858549
 21
-4.751609609009096
  0
LINE
  5
13C
100
AcDbEntity
  8
0
  6
ByLayer
 62
    7
370
   -1
100
AcDbLine
 10
20.57562264858549
 20
-4.751609609009096
 11
19.74114091014099
 21
-4.746390481755898
  0
LINE
  5
13D
100
AcDbEntity
  8
0
  6
ByLayer
 62
    7
370
   -1
100
AcDbLine
 10
19.74114091014099
 20
-4.746390481755898
 11
18.90709738659361
 21
-4.725477607397871
  0
LINE
  5
13E
100
AcDbEntity
  8
0
  6
ByLayer
 62
    7
370
   -1
100
AcDbLine
 10
18.90709738659361
 20
-4.725477607397871
 11
18.0737948935588
 21
-4.688750311234601
  0
LINE
  5
13F
100
AcDbEntity
  8
0
  6
ByLayer
 62
    7
370
   -1
100
AcDbLine
 10
18.0737948935588
 20
-4.688750311234601
 11
17.24153624665202
 21
-4.636087918565674
  0
LINE
  5
140
100
AcDbEntity
  8
0
  6
ByLayer
 62
    7
370
   -1
100
AcDbLine
 10
17.24153624665202
 20
-4.636087918565674
 11
16.41062426148871
 21
-4.567369754690678
  0
LINE
  5
141
100
AcDbEntity
  8
0
  6
ByLayer
 62
    7
370
   -1
100
AcDbLine
 10
16.41062426148871
 20
-4.567369754690678
 11
15.58136175368434
 21
-4.482475144909201
  0
LINE
  5
142
100
AcDbEntity
  8
0
  6
ByLayer
 62
    7
370
   -1
100
AcDbLine
 10
15.58136175368434
 20
-4.482475144909201
 11
14.75405153885436
 21
-4.381283414520828
  0
LINE
  5
143
100
AcDbEntity
  8
0
  6
ByLayer
 62
    7
370
   -1
100
AcDbLine
 10
14.75405153885436
 20
-4.381283414520828
 11
13.92899643261422
 21
-4.263673888825149
  0
LINE
  5
144
100
AcDbEntity
  8
0
  6
ByLayer
 62
    7
370
   -1
100
AcDbLine
 10
13.92899643261422
 20
-4.263673888825149
 11
13.10649925057938
 21
-4.129525893121748
  0
LINE
  5
145
100
AcDbEntity
  8
0
  6
ByLayer
 62
    7
370
   -1
100
AcDbLine
 10
13.10649925057938
 20
-4.129525893121748
 11
12.28686280836529
 21
-3.978718752710216
  0
LINE
  5
146
100
AcDbEntity
  8
0
  6
ByLayer
 62
    7
370
   -1
100
AcDbLine
 10
12.28686280836529
 20
-3.978718752710216
 11
11.4703899215874
 21
-3.811131792890137
  0
LINE
  5
147
100
AcDbEntity
  8
0
  6
ByLayer
 62
    7
370
   -1
100
AcDbLine
 10
11.4703899215874
 20
-3.811131792890137
 11
10.65738340586118
 21
-3.626644338961098
  0
LINE
  5
148
100
AcDbEntity
  8
0
  6
ByLayer
 62
    7
370
   -1
100
AcDbLine
 10
10.65738340586118
 20
-3.626644338961098
 11
9.848146076802067
 21
-3.425135716222688
  0
LINE
  5
149
100
AcDbEntity
  8
0
  6
ByLayer
 62
    7
370
   -1
100
AcDbLine
 10
9.848146076802067
 20
-3.425135716222688
 11
9.042980750025507
 21
-3.206485249974488
  0
LINE
  5
14A
100
AcDbEntity
  8
0
  6
ByLayer
 62
    7
370
   -1
100
AcDbLine
 10
9.042980750025507
 20
-3.206485249974488
 11
8.675121699305492
 21
-3.094039692927058
  0
LINE
  5
14B
100
AcDbEntity
  8
0
  6
ByLayer
 62
    7
370
   -1
100
AcDbLine
 10
8.675121699305492
 20
-3.094039692927058
 11
8.310168198583796
 21
-2.972112760296397
  0
LINE
  5
14C
100
AcDbEntity
  8
0
  6
ByLayer
 62
    7
370
   -1
100
AcDbLine
 10
8.310168198583796
 20
-2.972112760296397
 11
7.948411208888924
 21
-2.840794543720921
  0
LINE
  5
14D
100
AcDbEntity
  8
0
  6
ByLayer
 62
    7
370
   -1
100
AcDbLine
 10
7.948411208888924
 20
-2.840794543720921
 11
7.590141691249368
 21
-2.700175134839044
  0
LINE
  5
14E
100
AcDbEntity
  8
0
  6
ByLayer
 62
    7
370
   -1
100
AcDbLine
 10
7.590141691249368
 20
-2.700175134839044
 11
7.235650606693629
 21
-2.550344625289179
  0
LINE
  5
14F
100
AcDbEntity
  8
0
  6
ByLayer
 62
    7
370
   -1
100
AcDbLine
 10
7.235650606693629
 20
-2.550344625289179
 11
6.885228916250208
 21
-2.391393106709743
  0
LINE
  5
150
100
AcDbEntity
  8
0
  6
ByLayer
 62
    7
370
   -1
100
AcDbLine
 10
6.885228916250208
 20
-2.391393106709743
 11
6.539167580947599
 21
-2.223410670739147
  0
LINE
  5
151
100
AcDbEntity
  8
0
  6
ByLayer
 62
    7
370
   -1
100
AcDbLine
 10
6.539167580947599
 20
-2.223410670739147
 11
6.197757561814304
 21
-2.046487409015808
  0
LINE
  5
152
100
AcDbEntity
  8
0
  6
ByLayer
 62
    7
370
   -1
100
AcDbLine
 10
6.197757561814304
 20
-2.046487409015808
 11
5.86128981987882
 21
-1.860713413178139
  0
LINE
  5
153
100
AcDbEntity
  8
0
  6
ByLayer
 62
    7
370
   -1
100
AcDbLine
 10
5.86128981987882
 20
-1.860713413178139
 11
5.530055316169647
 21
-1.666178774864554
  0
LINE
  5
154
100
AcDbEntity
  8
0
  6
ByLayer
 62
    7
370
   -1
100
AcDbLine
 10
5.530055316169647
 20
-1.666178774864554
 11
5.204345011715282
 21
-1.462973585713469
  0
LINE
  5
155
100
AcDbEntity
  8
0
  6
ByLayer
 62
    7
370
   -1
100
AcDbLine
 10
5.204345011715282
 20
-1.462973585713469
 11
4.884449867544224
 21
-1.251187937363296
  0
LINE
  5
156
100
AcDbEntity
  8
0
  6
ByLayer
 62
    7
370
   -1
100
AcDbLine
 10
4.884449867544224
 20
-1.251187937363296
 11
4.570660844684971
 21
-1.03091192145245
  0
LINE
  5
157
100
AcDbEntity
  8
0
  6
ByLayer
 62
    7
370
   -1
100
AcDbLine
 10
4.570660844684971
 20
-1.03091192145245
 11
4.263268904166024
 21
-0.8022356296193468
  0
LINE
  5
158
100
AcDbEntity
  8
0
  6
ByLayer
 62
    7
370
   -1
100
AcDbLine
 10
4.263268904166024
 20
-0.8022356296193468
 11
3.962565007015878
 21
-0.5652491535023991
  0
LINE
  5
159
100
AcDbEntity
  8
0
  6
ByLayer
 62
    7
370
   -1
100
AcDbLine
 10
3.962565007015878
 20
-0.5652491535023991
 11
3.668840114263033
 21
-0.3200425847400213
  0
LINE
  5
15A
100
AcDbEntity
  8
0
  6
ByLayer
 62
    7
370
   -1
100
AcDbLine
 10
3.668840114263033
 20
-0.3200425847400213
 11
3.382385186935988
 21
-0.06670601497062822
  0
LINE
  5
15B
100
AcDbEntity
  8
0
  6
ByLayer
 62
    7
370
   -1
100
AcDbLine
 10
3.382385186935988
 20
-0.06670601497062822
 11
3.103491186063242
 21
0.1946704641673666
  0
LINE
  5
15C
100
AcDbEntity
  8
0
  6
ByLayer
 62
    7
370
   -1
100
AcDbLine
 10
3.103491186063242
 20
0.1946704641673666
 11
2.832449072673292
 21
0.4639967610355478
  0
LINE
  5
15D
100
AcDbEntity
  8
0
  6
ByLayer
 62
    7
370
   -1
100
AcDbLine
 10
2.832449072673292
 20
0.4639967610355478
 11
2.569549807794638
 21
0.741182783995502
  0
LINE
  5
15E
100
AcDbEntity
  8
0
  6
ByLayer
 62
    7
370
   -1
100
AcDbLine
 10
2.569549807794638
 20
0.741182783995502
 11
2.315084352455778
 21
1.026138441408814
  0
LINE
  5
15F
100
AcDbEntity
  8
0
  6
ByLayer
 62
    7
370
   -1
100
AcDbLine
 10
2.315084352455778
 20
1.026138441408814
 11
2.069343667685209
 21
1.318773641637071
  0
LINE
  5
160
100
AcDbEntity
  8
0
  6
ByLayer
 62
    7
370
   -1
100
AcDbLine
 10
2.069343667685209
 20
1.318773641637071
 11
1.832618714511432
 21
1.618998293041857
  0
LINE
  5
161
100
AcDbEntity
  8
0
  6
ByLayer
 62
    7
370
   -1
100
AcDbLine
 10
1.832618714511432
 20
1.618998293041857
 11
1.605200453962944
 21
1.926722303984759
  0
LINE
  5
162
100
AcDbEntity
  8
0
  6
ByLayer
 62
    7
370
   -1
100
AcDbLine
 10
1.605200453962944
 20
1.926722303984759
 11
1.387379847068244
 21
2.241855582827362
  0
LINE
  5
163
100
AcDbEntity
  8
0
  6
ByLayer
 62
    7
370
   -1
100
AcDbLine
 10
1.387379847068244
 20
2.241855582827362
 11
1.179447854855832
 21
2.564308037931252
  0
LINE
  5
164
100
AcDbEntity
  8
0
  6
ByLayer
 62
    7
370
   -1
100
AcDbLine
 10
1.179447854855832
 20
2.564308037931252
 11
0.9816954383542037
 21
2.893989577658016
  0
LINE
  5
165
100
AcDbEntity
  8
0
  6
ByLayer
 62
    7
370
   -1
100
AcDbLine
 10
0.9816954383542037
 20
2.893989577658016
 11
0.7944135585918595
 21
3.230810110369236
  0
LINE
  5
166
100
AcDbEntity
  8
0
  6
ByLayer
 62
    7
370
   -1
100
AcDbLine
 10
0.7944135585918595
 20
3.230810110369236
 11
0.6178931765972976
 21
3.574679544426502
  0
LINE
  5
167
100
AcDbEntity
  8
0
  6
ByLayer
 62
    7
370
   -1
100
AcDbLine
 10
0.6178931765972976
 20
3.574679544426502
 11
0.4524252533990163
 21
3.925507788191397
  0
LINE
  5
168
100
AcDbEntity
  8
0
  6
ByLayer
 62
    7
370
   -1
100
AcDbLine
 10
0.4524252533990163
 20
3.925507788191397
 11
0.2983007500255113
 21
4.283204750025515
  0
LINE
  5
169
100
AcDbEntity
  8
0
  6
ByLayer
 62
    7
370
   -1
100
AcDbLine
 10
0.2983007500255113
 20
4.283204750025515
 11
0.03760539706656372
 21
4.82767801644826
  0
LINE
  5
16A
100
AcDbEntity
  8
0
  6
ByLayer
 62
    7
370
   -1
100
AcDbLine
 10
0.03760539706656372
 20
4.82767801644826
 11
-0.2110370372256725
 21
5.376620558826831
  0
LINE
  5
16B
100
AcDbEntity
  8
0
  6
ByLayer
 62
    7
370
   -1
100
AcDbLine
 10
-0.2110370372256725
 20
5.376620558826831
 11
-0.4478136966194494
 21
5.929848749891246
  0
LINE
  5
16C
100
AcDbEntity
  8
0
  6
ByLayer
 62
    7
370
   -1
100
AcDbLine
 10
-0.4478136966194494
 20
5.929848749891246
 11
-0.6729117248830193
 21
6.487178962371525
  0
LINE
  5
16D
100
AcDbEntity
  8
0
  6
ByLayer
 62
    7
370
   -1
100
AcDbLine
 10
-0.6729117248830193
 20
6.487178962371525
 11
-0.8865182657846339
 21
7.048427568997687
  0
LINE
  5
16E
100
AcDbEntity
  8
0
  6
ByLayer
 62
    7
370
   -1
100
AcDbLine
 10
-0.8865182657846339
 20
7.048427568997687
 11
-1.088820463092546
 21
7.613410942499751
  0
LINE
  5
16F
100
AcDbEntity
  8
0
  6
ByLayer
 62
    7
370
   -1
100
AcDbLine
 10
-1.088820463092546
 20
7.613410942499751
 11
-1.280005460575007
 21
8.181945455607737
  0
LINE
  5
170
100
AcDbEntity
  8
0
  6
ByLayer
 62
    7
370
   -1
100
AcDbLine
 10
-1.280005460575007
 20
8.181945455607737
 11
-1.46026040200027
 21
8.753847481051663
  0
LINE
  5
171
100
AcDbEntity
  8
0
  6
ByLayer
 62
    7
370
   -1
100
AcDbLine
 10
-1.46026040200027
 20
8.753847481051663
 11
-1.629772431136586
 21
9.328933391561545
  0
LINE
  5
172
100
AcDbEntity
  8
0
  6
ByLayer
 62
    7
370
   -1
100
AcDbLine
 10
-1.629772431136586
 20
9.328933391561545
 11
-1.788728691752208
 21
9.907019559867409
  0
LINE
  5
173
100
AcDbEntity
  8
0
  6
ByLayer
 62
    7
370
   -1
100
AcDbLine
 10
-1.788728691752208
 20
9.907019559867409
 11
-1.937316327615389
 21
10.48792235869927
  0
LINE
  5
174
100
AcDbEntity
  8
0
  6
ByLayer
 62
    7
370
   -1
100
AcDbLine
 10
-1.937316327615389
 20
10.48792235869927
 11
-2.075722482494379
 21
11.07145816078715
  0
LINE
  5
175
100
AcDbEntity
  8
0
  6
ByLayer
 62
    7
370
   -1
100
AcDbLine
 10
-2.075722482494379
 20
11.07145816078715
 11
-2.204134300157432
 21
11.65744333886106
  0
LINE
  5
176
100
AcDbEntity
  8
0
  6
ByLayer
 62
    7
370
   -1
100
AcDbLine
 10
-2.204134300157432
 20
11.65744333886106
 11
-2.322738924372799
 21
12.24569426565104
  0
LINE
  5
177
100
AcDbEntity
  8
0
  6
ByLayer
 62
    7
370
   -1
100
AcDbLine
 10
-2.322738924372799
 20
12.24569426565104
 11
-2.431723498908732
 21
12.83602731388708
  0
LINE
  5
178
100
AcDbEntity
  8
0
  6
ByLayer
 62
    7
370
   -1
100
AcDbLine
 10
-2.431723498908732
 20
12.83602731388708
 11
-2.531275167533485
 21
13.42825885629921
  0
LINE
  5
179
100
AcDbEntity
  8
0
  6
ByLayer
 62
    7
370
   -1
100
AcDbLine
 10
-2.531275167533485
 20
13.42825885629921
 11
-2.621581074015308
 21
14.02220526561747
  0
LINE
  5
17A
100
AcDbEntity
  8
0
  6
ByLayer
 62
    7
370
   -1
100
AcDbLine
 10
-2.621581074015308
 20
14.02220526561747
 11
-2.702828362122455
 21
14.61768291457185
  0
LINE
  5
17B
100
AcDbEntity
  8
0
  6
ByLayer
 62
    7
370
   -1
100
AcDbLine
 10
-2.702828362122455
 20
14.61768291457185
 11
-2.775204175623176
 21
15.21450817589238
  0
LINE
  5
17C
100
AcDbEntity
  8
0
  6
ByLayer
 62
    7
370
   -1
100
AcDbLine
 10
-2.775204175623176
 20
15.21450817589238
 11
-2.838895658285725
 21
15.81249742230908
  0
LINE
  5
17D
100
AcDbEntity
  8
0
  6
ByLayer
 62
    7
370
   -1
100
AcDbLine
 10
-2.838895658285725
 20
15.81249742230908
 11
-2.894089953878354
 21
16.41146702655197
  0
LINE
  5
17E
100
AcDbEntity
  8
0
  6
ByLayer
 62
    7
370
   -1
100
AcDbLine
 10
-2.894089953878354
 20
16.41146702655197
 11
-2.940974206169314
 21
17.01123336135107
  0
LINE
  5
17F
100
AcDbEntity
  8
0
  6
ByLayer
 62
    7
370
   -1
100
AcDbLine
 10
-2.940974206169314
 20
17.01123336135107
 11
-2.979735558926858
 21
17.6116127994364
  0
LINE
  5
180
100
AcDbEntity
  8
0
  6
ByLayer
 62
    7
370
   -1
100
AcDbLine
 10
-2.979735558926858
 20
17.6116127994364
 11
-3.010561155919238
 21
18.21242171353797
  0
LINE
  5
181
100
AcDbEntity
  8
0
  6
ByLayer
 62
    7
370
   -1
100
AcDbLine
 10
-3.010561155919238
 20
18.21242171353797
 11
-3.033638140914707
 21
18.81347647638581
  0
LINE
  5
182
100
AcDbEntity
  8
0
  6
ByLayer
 62
    7
370
   -1
100
AcDbLine
 10
-3.033638140914707
 20
18.81347647638581
 11
-3.049153657681515
 21
19.41459346070993
  0
LINE
  5
183
100
AcDbEntity
  8
0
  6
ByLayer
 62
    7
370
   -1
100
AcDbLine
 10
-3.049153657681515
 20
19.41459346070993
 11
-3.057294849987916
 21
20.01558903924036
  0
LINE
  5
184
100
AcDbEntity
  8
0
  6
ByLayer
 62
    7
370
   -1
100
AcDbLine
 10
-3.057294849987916
 20
20.01558903924036
 11
-3.058248861602162
 21
20.61627958470712
  0
LINE
  5
185
100
AcDbEntity
  8
0
  6
ByLayer
 62
    7
370
   -1
100
AcDbLine
 10
-3.058248861602162
 20
20.61627958470712
 11
-3.052202836292504
 21
21.21648146984021
  0
LINE
  5
186
100
AcDbEntity
  8
0
  6
ByLayer
 62
    7
370
   -1
100
AcDbLine
 10
-3.052202836292504
 20
21.21648146984021
 11
-3.039343917827196
 21
21.81601106736966
  0
LINE
  5
187
100
AcDbEntity
  8
0
  6
ByLayer
 62
    7
370
   -1
100
AcDbLine
 10
-3.039343917827196
 20
21.81601106736966
 11
-3.019859249974488
 21
22.41468475002551
  0
LINE
  5
188
100
AcDbEntity
  8
0
  6
ByLayer
 62
    7
370
   -1
100
AcDbLine
 10
-3.019859249974488
 20
22.41468475002551
 11
-3.019859249974488
 21
22.41468475002551
  0
LINE
  5
189
100
AcDbEntity
  8
0
  6
ByLayer
 62
    7
370
   -1
100
AcDbLine
 10
-6.974253429764577
 20
23.5009675225383
 11
-6.963136206324614
 21
23.95043809729242
  0
LINE
  5
18A
100
AcDbEntity
  8
0
  6
ByLayer
 62
    7
370
   -1
100
AcDbLine
 10
-6.963136206324614
 20
23.95043809729242
 11
-6.93564744453414
 21
24.39946927561809
  0
LINE
  5
18B
100
AcDbEntity
  8
0
  6
ByLayer
 62
    7
370
   -1
100
AcDbLine
 10
-6.93564744453414
 20
24.39946927561809
 11
-6.891967636219547
 21
24.84746169022317
  0
LINE
  5
18C
100
AcDbEntity
  8
0
  6
ByLayer
 62
    7
370
   -1
100
AcDbLine
 10
-6.891967636219547
 20
24.84746169022317
 11
-6.832277273207229
 21
25.29381597381553
  0
LINE
  5
18D
100
AcDbEntity
  8
0
  6
ByLayer
 62
    7
370
   -1
100
AcDbLine
 10
-6.832277273207229
 20
25.29381597381553
 11
-6.756756847323571
 21
25.73793275910303
  0
LINE
  5
18E
100
AcDbEntity
  8
0
  6
ByLayer
 62
    7
370
   -1
100
AcDbLine
 10
-6.756756847323571
 20
25.73793275910303
 11
-6.665586850394971
 21
26.17921267879354
  0
LINE
  5
18F
100
AcDbEntity
  8
0
  6
ByLayer
 62
    7
370
   -1
100
AcDbLine
 10
-6.665586850394971
 20
26.17921267879354
 11
-6.558947774247812
 21
26.61705636559492
  0
LINE
  5
190
100
AcDbEntity
  8
0
  6
ByLayer
 62
    7
370
   -1
100
AcDbLine
 10
-6.558947774247812
 20
26.61705636559492
 11
-6.437020110708489
 21
27.05086445221504
  0
LINE
  5
191
100
AcDbEntity
  8
0
  6
ByLayer
 62
    7
370
   -1
100
AcDbLine
 10
-6.437020110708489
 20
27.05086445221504
 11
-6.299984351603388
 21
27.48003757136176
  0
LINE
  5
192
100
AcDbEntity
  8
0
  6
ByLayer
 62
    7
370
   -1
100
AcDbLine
 10
-6.299984351603388
 20
27.48003757136176
 11
-6.148020988758905
 21
27.90397635574295
  0
LINE
  5
193
100
AcDbEntity
  8
0
  6
ByLayer
 62
    7
370
   -1
100
AcDbLine
 10
-6.148020988758905
 20
27.90397635574295
 11
-5.98131051400143
 21
28.32208143806647
  0
LINE
  5
194
100
AcDbEntity
  8
0
  6
ByLayer
 62
    7
370
   -1
100
AcDbLine
 10
-5.98131051400143
 20
28.32208143806647
 11
-5.800033419157348
 21
28.73375345104019
  0
LINE
  5
195
100
AcDbEntity
  8
0
  6
ByLayer
 62
    7
370
   -1
100
AcDbLine
 10
-5.800033419157348
 20
28.73375345104019
 11
-5.604370196053056
 21
29.13839302737196
  0
LINE
  5
196
100
AcDbEntity
  8
0
  6
ByLayer
 62
    7
370
   -1
100
AcDbLine
 10
-5.604370196053056
 20
29.13839302737196
 11
-5.394501336514941
 21
29.53540079976967
  0
LINE
  5
197
100
AcDbEntity
  8
0
  6
ByLayer
 62
    7
370
   -1
100
AcDbLine
 10
-5.394501336514941
 20
29.53540079976967
 11
-5.170607332369394
 21
29.92417740094116
  0
LINE
  5
198
100
AcDbEntity
  8
0
  6
ByLayer
 62
    7
370
   -1
100
AcDbLine
 10
-5.170607332369394
 20
29.92417740094116
 11
-4.932868675442806
 21
30.30412346359431
  0
LINE
  5
199
100
AcDbEntity
  8
0
  6
ByLayer
 62
    7
370
   -1
100
AcDbLine
 10
-4.932868675442806
 20
30.30412346359431
 11
-4.681465857561566
 21
30.67463962043698
  0
LINE
  5
19A
100
AcDbEntity
  8
0
  6
ByLayer
 62
    7
370
   -1
100
AcDbLine
 10
-4.681465857561566
 20
30.67463962043698
 11
-4.416579370552068
 21
31.03512650417704
  0
LINE
  5
19B
100
AcDbEntity
  8
0
  6
ByLayer
 62
    7
370
   -1
100
AcDbLine
 10
-4.416579370552068
 20
31.03512650417704
 11
-4.138389706240699
 21
31.38498474752235
  0
LINE
  5
19C
100
AcDbEntity
  8
0
  6
ByLayer
 62
    7
370
   -1
100
AcDbLine
 10
-4.138389706240699
 20
31.38498474752235
 11
-3.847077356453851
 21
31.72361498318076
  0
LINE
  5
19D
100
AcDbEntity
  8
0
  6
ByLayer
 62
    7
370
   -1
100
AcDbLine
 10
-3.847077356453851
 20
31.72361498318076
 11
-3.542822813017915
 21
32.05041784386016
  0
LINE
  5
19E
100
AcDbEntity
  8
0
  6
ByLayer
 62
    7
370
   -1
100
AcDbLine
 10
-3.542822813017915
 20
32.05041784386016
 11
-3.22580656775928
 21
32.36479396226841
  0
LINE
  5
19F
100
AcDbEntity
  8
0
  6
ByLayer
 62
    7
370
   -1
100
AcDbLine
 10
-3.22580656775928
 20
32.36479396226841
 11
-2.896209112504338
 21
32.66614397111336
  0
LINE
  5
1A0
100
AcDbEntity
  8
0
  6
ByLayer
 62
    7
370
   -1
100
AcDbLine
 10
-2.896209112504338
 20
32.66614397111336
 11
-2.554210939079478
 21
32.95386850310288
  0
LINE
  5
1A1
100
AcDbEntity
  8
0
  6
ByLayer
 62
    7
370
   -1
100
AcDbLine
 10
-2.554210939079478
 20
32.95386850310288
 11
-2.199992539311093
 21
33.22736819094486
  0
LINE
  5
1A2
100
AcDbEntity
  8
0
  6
ByLayer
 62
    7
370
   -1
100
AcDbLine
 10
-2.199992539311093
 20
33.22736819094486
 11
-1.833734405025571
 21
33.48604366734712
  0
LINE
  5
1A3
100
AcDbEntity
  8
0
  6
ByLayer
 62
    7
370
   -1
100
AcDbLine
 10
-1.833734405025571
 20
33.48604366734712
 11
-1.455617028049304
 21
33.72929556501756
  0
LINE
  5
1A4
100
AcDbEntity
  8
0
  6
ByLayer
 62
    7
370
   -1
100
AcDbLine
 10
-1.455617028049304
 20
33.72929556501756
 11
-1.065820900208682
 21
33.95652451666403
  0
LINE
  5
1A5
100
AcDbEntity
  8
0
  6
ByLayer
 62
    7
370
   -1
100
AcDbLine
 10
-1.065820900208682
 20
33.95652451666403
 11
-0.6645265133300957
 21
34.16713115499439
  0
LINE
  5
1A6
100
AcDbEntity
  8
0
  6
ByLayer
 62
    7
370
   -1
100
AcDbLine
 10
-0.6645265133300957
 20
34.16713115499439
 11
-0.2519143592399353
 21
34.36051611271653
  0
LINE
  5
1A7
100
AcDbEntity
  8
0
  6
ByLayer
 62
    7
370
   -1
100
AcDbLine
 10
-0.2519143592399353
 20
34.36051611271653
 11
0.1718350702354172
 21
34.53608002253829
  0
LINE
  5
1A8
100
AcDbEntity
  8
0
  6
ByLayer
 62
    7
370
   -1
100
AcDbLine
 10
0.1718350702354172
 20
34.53608002253829
 11
0.637877506306714
 21
34.72699922832192
  0
LINE
  5
1A9
100
AcDbEntity
  8
0
  6
ByLayer
 62
    7
370
   -1
100
AcDbLine
 10
0.637877506306714
 20
34.72699922832192
 11
1.106486403758965
 21
34.91062999034737
  0
LINE
  5
1AA
100
AcDbEntity
  8
0
  6
ByLayer
 62
    7
370
   -1
100
AcDbLine
 10
1.106486403758965
 20
34.91062999034737
 11
1.577559194836807
 21
35.08715891272325
  0
LINE
  5
1AB
100
AcDbEntity
  8
0
  6
ByLayer
 62
    7
370
   -1
100
AcDbLine
 10
1.577559194836807
 20
35.08715891272325
 11
2.050993311784879
 21
35.2567725995582
  0
LINE
  5
1AC
100
AcDbEntity
  8
0
  6
ByLayer
 62
    7
370
   -1
100
AcDbLine
 10
2.050993311784879
 20
35.2567725995582
 11
2.526686186847817
 21
35.41965765496083
  0
LINE
  5
1AD
100
AcDbEntity
  8
0
  6
ByLayer
 62
    7
370
   -1
100
AcDbLine
 10
2.526686186847817
 20
35.41965765496083
 11
3.004535252270261
 21
35.57600068303979
  0
LINE
  5
1AE
100
AcDbEntity
  8
0
  6
ByLayer
 62
    7
370
   -1
100
AcDbLine
 10
3.004535252270261
 20
35.57600068303979
 11
3.484437940296846
 21
35.72598828790367
  0
LINE
  5
1AF
100
AcDbEntity
  8
0
  6
ByLayer
 62
    7
370
   -1
100
AcDbLine
 10
3.484437940296846
 20
35.72598828790367
 11
3.966291683172211
 21
35.86980707366111
  0
LINE
  5
1B0
100
AcDbEntity
  8
0
  6
ByLayer
 62
    7
370
   -1
100
AcDbLine
 10
3.966291683172211
 20
35.86980707366111
 11
4.449993913140992
 21
36.00764364442073
  0
LINE
  5
1B1
100
AcDbEntity
  8
0
  6
ByLayer
 62
    7
370
   -1
100
AcDbLine
 10
4.449993913140992
 20
36.00764364442073
 11
4.93544206244783
 21
36.13968460429116
  0
LINE
  5
1B2
100
AcDbEntity
  8
0
  6
ByLayer
 62
    7
370
   -1
100
AcDbLine
 10
4.93544206244783
 20
36.13968460429116
 11
5.42253356333736
 21
36.26611655738103
  0
LINE
  5
1B3
100
AcDbEntity
  8
0
  6
ByLayer
 62
    7
370
   -1
100
AcDbLine
 10
5.42253356333736
 20
36.26611655738103
 11
5.911165848054221
 21
36.38712610779894
  0
LINE
  5
1B4
100
AcDbEntity
  8
0
  6
ByLayer
 62
    7
370
   -1
100
AcDbLine
 10
5.911165848054221
 20
36.38712610779894
 11
6.401236348843049
 21
36.50289985965352
  0
LINE
  5
1B5
100
AcDbEntity
  8
0
  6
ByLayer
 62
    7
370
   -1
100
AcDbLine
 10
6.401236348843049
 20
36.50289985965352
 11
6.892642497948484
 21
36.61362441705342
  0
LINE
  5
1B6
100
AcDbEntity
  8
0
  6
ByLayer
 62
    7
370
   -1
100
AcDbLine
 10
6.892642497948484
 20
36.61362441705342
 11
7.385281727615162
 21
36.71948638410722
  0
LINE
  5
1B7
100
AcDbEntity
  8
0
  6
ByLayer
 62
    7
370
   -1
100
AcDbLine
 10
7.385281727615162
 20
36.71948638410722
 11
7.87905147008772
 21
36.82067236492357
  0
LINE
  5
1B8
100
AcDbEntity
  8
0
  6
ByLayer
 62
    7
370
   -1
100
AcDbLine
 10
7.87905147008772
 20
36.82067236492357
 11
8.373849157610797
 21
36.9173689636111
  0
LINE
  5
1B9
100
AcDbEntity
  8
0
  6
ByLayer
 62
    7
370
   -1
100
AcDbLine
 10
8.373849157610797
 20
36.9173689636111
 11
8.86957222242903
 21
37.00976278427841
  0
LINE
  5
1BA
100
AcDbEntity
  8
0
  6
ByLayer
 62
    7
370
   -1
100
AcDbLine
 10
8.86957222242903
 20
37.00976278427841
 11
9.366118096787059
 21
37.09804043103414
  0
LINE
  5
1BB
100
AcDbEntity
  8
0
  6
ByLayer
 62
    7
370
   -1
100
AcDbLine
 10
9.366118096787059
 20
37.09804043103414
 11
9.863384212929518
 21
37.18238850798691
  0
LINE
  5
1BC
100
AcDbEntity
  8
0
  6
ByLayer
 62
    7
370
   -1
100
AcDbLine
 10
9.863384212929518
 20
37.18238850798691
 11
10.36126800310105
 21
37.26299361924535
  0
LINE
  5
1BD
100
AcDbEntity
  8
0
  6
ByLayer
 62
    7
370
   -1
100
AcDbLine
 10
10.36126800310105
 20
37.26299361924535
 11
10.85966689954628
 21
37.34004236891807
  0
LINE
  5
1BE
100
AcDbEntity
  8
0
  6
ByLayer
 62
    7
370
   -1
100
AcDbLine
 10
10.85966689954628
 20
37.34004236891807
 11
11.35847833450986
 21
37.4137213611137
  0
LINE
  5
1BF
100
AcDbEntity
  8
0
  6
ByLayer
 62
    7
370
   -1
100
AcDbLine
 10
11.35847833450986
 20
37.4137213611137
 11
11.85759974023642
 21
37.48421719994086
  0
LINE
  5
1C0
100
AcDbEntity
  8
0
  6
ByLayer
 62
    7
370
   -1
100
AcDbLine
 10
11.85759974023642
 20
37.48421719994086
 11
12.3569285489706
 21
37.55171648950818
  0
LINE
  5
1C1
100
AcDbEntity
  8
0
  6
ByLayer
 62
    7
370
   -1
100
AcDbLine
 10
12.3569285489706
 20
37.55171648950818
 11
12.85636219295704
 21
37.61640583392428
  0
LINE
  5
1C2
100
AcDbEntity
  8
0
  6
ByLayer
 62
    7
370
   -1
100
AcDbLine
 10
12.85636219295704
 20
37.61640583392428
 11
13.35579810444037
 21
37.67847183729778
  0
LINE
  5
1C3
100
AcDbEntity
  8
0
  6
ByLayer
 62
    7
370
   -1
100
AcDbLine
 10
13.35579810444037
 20
37.67847183729778
 11
13.85513371566524
 21
37.73810110373731
  0
LINE
  5
1C4
100
AcDbEntity
  8
0
  6
ByLayer
 62
    7
370
   -1
100
AcDbLine
 10
13.85513371566524
 20
37.73810110373731
 11
14.35426645887627
 21
37.79548023735148
  0
LINE
  5
1C5
100
AcDbEntity
  8
0
  6
ByLayer
 62
    7
370
   -1
100
AcDbLine
 10
14.35426645887627
 20
37.79548023735148
 11
14.85309376631812
 21
37.85079584224894
  0
LINE
  5
1C6
100
AcDbEntity
  8
0
  6
ByLayer
 62
    7
370
   -1
100
AcDbLine
 10
14.85309376631812
 20
37.85079584224894
 11
15.35151307023542
 21
37.90423452253829
  0
LINE
  5
1C7
100
AcDbEntity
  8
0
  6
ByLayer
 62
    7
370
   -1
100
AcDbLine
 10
48.89937057023541
 20
6.807556022538293
 11
48.6609699856461
 21
6.281187650714588
  0
LINE
  5
1C8
100
AcDbEntity
  8
0
  6
ByLayer
 62
    7
370
   -1
100
AcDbLine
 10
48.6609699856461
 20
6.281187650714588
 11
48.41094274471765
 21
5.757568765950734
  0
LINE
  5
1C9
100
AcDbEntity
  8
0
  6
ByLayer
 62
    7
370
   -1
100
AcDbLine
 10
48.41094274471765
 20
5.757568765950734
 11
48.14931371348338
 21
5.237370311081814
  0
LINE
  5
1CA
100
AcDbEntity
  8
0
  6
ByLayer
 62
    7
370
   -1
100
AcDbLine
 10
48.14931371348338
 20
5.237370311081814
 11
47.87610775797667
 21
4.721263228942912
  0
LINE
  5
1CB
100
AcDbEntity
  8
0
  6
ByLayer
 62
    7
370
   -1
100
AcDbLine
 10
47.87610775797667
 20
4.721263228942912
 11
47.59134974423091
 21
4.209918462369115
  0
LINE
  5
1CC
100
AcDbEntity
  8
0
  6
ByLayer
 62
    7
370
   -1
100
AcDbLine
 10
47.59134974423091
 20
4.209918462369115
 11
47.29506453827945
 21
3.704006954195505
  0
LINE
  5
1CD
100
AcDbEntity
  8
0
  6
ByLayer
 62
    7
370
   -1
100
AcDbLine
 10
47.29506453827945
 20
3.704006954195505
 11
46.98727700615566
 21
3.204199647257169
  0
LINE
  5
1CE
100
AcDbEntity
  8
0
  6
ByLayer
 62
    7
370
   -1
100
AcDbLine
 10
46.98727700615566
 20
3.204199647257169
 11
46.6680120138929
 21
2.711167484389189
  0
LINE
  5
1CF
100
AcDbEntity
  8
0
  6
ByLayer
 62
    7
370
   -1
100
AcDbLine
 10
46.6680120138929
 20
2.711167484389189
 11
46.33729442752452
 21
2.225581408426649
  0
LINE
  5
1D0
100
AcDbEntity
  8
0
  6
ByLayer
 62
    7
370
   -1
100
AcDbLine
 10
46.33729442752452
 20
2.225581408426649
 11
45.99514911308392
 21
1.748112362204637
  0
LINE
  5
1D1
100
AcDbEntity
  8
0
  6
ByLayer
 62
    7
370
   -1
100
AcDbLine
 10
45.99514911308392
 20
1.748112362204637
 11
45.64160093660445
 21
1.279431288558234
  0
LINE
  5
1D2
100
AcDbEntity
  8
0
  6
ByLayer
 62
    7
370
   -1
100
AcDbLine
 10
45.64160093660445
 20
1.279431288558234
 11
45.27667476411948
 21
0.8202091303225255
  0
LINE
  5
1D3
100
AcDbEntity
  8
0
  6
ByLayer
 62
    7
370
   -1
100
AcDbLine
 10
45.27667476411948
 20
0.8202091303225255
 11
44.90039546166236
 21
0.3711168303325965
  0
LINE
  5
1D4
100
AcDbEntity
  8
0
  6
ByLayer
 62
    7
370
   -1
100
AcDbLine
 10
44.90039546166236
 20
0.3711168303325965
 11
44.51278789526646
 21
-0.06717466857646992
  0
LINE
  5
1D5
100
AcDbEntity
  8
0
  6
ByLayer
 62
    7
370
   -1
100
AcDbLine
 10
44.51278789526646
 20
-0.06717466857646992
 11
44.11387693096517
 21
-0.4939944235695882
  0
LINE
  5
1D6
100
AcDbEntity
  8
0
  6
ByLayer
 62
    7
370
   -1
100
AcDbLine
 10
44.11387693096517
 20
-0.4939944235695882
 11
43.70368743479182
 21
-0.9086714918116742
  0
LINE
  5
1D7
100
AcDbEntity
  8
0
  6
ByLayer
 62
    7
370
   -1
100
AcDbLine
 10
43.70368743479182
 20
-0.9086714918116742
 11
43.28224427277981
 21
-1.310534930467644
  0
LINE
  5
1D8
100
AcDbEntity
  8
0
  6
ByLayer
 62
    7
370
   -1
100
AcDbLine
 10
43.28224427277981
 20
-1.310534930467644
 11
42.84957231096249
 21
-1.698913796702413
  0
LINE
  5
1D9
100
AcDbEntity
  8
0
  6
ByLayer
 62
    7
370
   -1
100
AcDbLine
 10
42.84957231096249
 20
-1.698913796702413
 11
42.40569641537321
 21
-2.073137147680896
  0
LINE
  5
1DA
100
AcDbEntity
  8
0
  6
ByLayer
 62
    7
370
   -1
100
AcDbLine
 10
42.40569641537321
 20
-2.073137147680896
 11
41.95064145204536
 21
-2.432534040568009
  0
LINE
  5
1DB
100
AcDbEntity
  8
0
  6
ByLayer
 62
    7
370
   -1
100
AcDbLine
 10
41.95064145204536
 20
-2.432534040568009
 11
41.48443228701231
 21
-2.776433532528668
  0
LINE
  5
1DC
100
AcDbEntity
  8
0
  6
ByLayer
 62
    7
370
   -1
100
AcDbLine
 10
41.48443228701231
 20
-2.776433532528668
 11
41.00709378630739
 21
-3.104164680727789
  0
LINE
  5
1DD
100
AcDbEntity
  8
0
  6
ByLayer
 62
    7
370
   -1
100
AcDbLine
 10
41.00709378630739
 20
-3.104164680727789
 11
40.518650815964
 21
-3.415056542330286
  0
LINE
  5
1DE
100
AcDbEntity
  8
0
  6
ByLayer
 62
    7
370
   -1
100
AcDbLine
 10
40.518650815964
 20
-3.415056542330286
 11
40.01912824201549
 21
-3.708438174501076
  0
LINE
  5
1DF
100
AcDbEntity
  8
0
  6
ByLayer
 62
    7
370
   -1
100
AcDbLine
 10
40.01912824201549
 20
-3.708438174501076
 11
39.50855093049523
 21
-3.983638634405073
  0
LINE
  5
1E0
100
AcDbEntity
  8
0
  6
ByLayer
 62
    7
370
   -1
100
AcDbLine
 10
39.50855093049523
 20
-3.983638634405073
 11
38.9869437474366
 21
-4.239986979207194
  0
LINE
  5
1E1
100
AcDbEntity
  8
0
  6
ByLayer
 62
    7
370
   -1
100
AcDbLine
 10
38.9869437474366
 20
-4.239986979207194
 11
38.45433155887294
 21
-4.476812266072356
  0
LINE
  5
1E2
100
AcDbEntity
  8
0
  6
ByLayer
 62
    7
370
   -1
100
AcDbLine
 10
38.45433155887294
 20
-4.476812266072356
 11
37.91073923083762
 21
-4.693443552165471
  0
LINE
  5
1E3
100
AcDbEntity
  8
0
  6
ByLayer
 62
    7
370
   -1
100
AcDbLine
 10
37.91073923083762
 20
-4.693443552165471
 11
37.35619162936403
 21
-4.889209894651456
  0
LINE
  5
1E4
100
AcDbEntity
  8
0
  6
ByLayer
 62
    7
370
   -1
100
AcDbLine
 10
37.35619162936403
 20
-4.889209894651456
 11
36.7907136204855
 21
-5.063440350695228
  0
LINE
  5
1E5
100
AcDbEntity
  8
0
  6
ByLayer
 62
    7
370
   -1
100
AcDbLine
 10
36.7907136204855
 20
-5.063440350695228
 11
36.21433007023542
 21
-5.215463977461704
  0
LINE
  5
1E6
100
AcDbEntity
  8
0
  6
ByLayer
 62
    7
370
   -1
100
AcDbLine
 10
36.21433007023542
 20
-5.215463977461704
 11
35.29938937732481
 21
-5.495042023482315
  0
LINE
  5
1E7
100
AcDbEntity
  8
0
  6
ByLayer
 62
    7
370
   -1
100
AcDbLine
 10
35.29938937732481
 20
-5.495042023482315
 11
34.37903258626376
 21
-5.758931450725442
  0
LINE
  5
1E8
100
AcDbEntity
  8
0
  6
ByLayer
 62
    7
370
   -1
100
AcDbLine
 10
34.37903258626376
 20
-5.758931450725442
 11
33.45360793501002
 21
-6.006993483285611
  0
LINE
  5
1E9
100
AcDbEntity
  8
0
  6
ByLayer
 62
    7
370
   -1
100
AcDbLine
 10
33.45360793501002
 20
-6.006993483285611
 11
32.52346366152138
 21
-6.239089345257348
  0
LINE
  5
1EA
100
AcDbEntity
  8
0
  6
ByLayer
 62
    7
370
   -1
100
AcDbLine
 10
32.52346366152138
 20
-6.239089345257348
 11
31.58894800375561
 21
-6.455080260735176
  0
LINE
  5
1EB
100
AcDbEntity
  8
0
  6
ByLayer
 62
    7
370
   -1
100
AcDbLine
 10
31.58894800375561
 20
-6.455080260735176
 11
30.65040919967048
 21
-6.654827453813624
  0
LINE
  5
1EC
100
AcDbEntity
  8
0
  6
ByLayer
 62
    7
370
   -1
100
AcDbLine
 10
30.65040919967048
 20
-6.654827453813624
 11
29.70819548722377
 21
-6.838192148587212
  0
LINE
  5
1ED
100
AcDbEntity
  8
0
  6
ByLayer
 62
    7
370
   -1
100
AcDbLine
 10
29.70819548722377
 20
-6.838192148587212
 11
28.76265510437325
 21
-7.005035569150471
  0
LINE
  5
1EE
100
AcDbEntity
  8
0
  6
ByLayer
 62
    7
370
   -1
100
AcDbLine
 10
28.76265510437325
 20
-7.005035569150471
 11
27.81413628907668
 21
-7.15521893959792
  0
LINE
  5
1EF
100
AcDbEntity
  8
0
  6
ByLayer
 62
    7
370
   -1
100
AcDbLine
 10
27.81413628907668
 20
-7.15521893959792
 11
26.86298727929184
 21
-7.288603484024088
  0
LINE
  5
1F0
100
AcDbEntity
  8
0
  6
ByLayer
 62
    7
370
   -1
100
AcDbLine
 10
26.86298727929184
 20
-7.288603484024088
 11
25.90955631297652
 21
-7.405050426523502
  0
LINE
  5
1F1
100
AcDbEntity
  8
0
  6
ByLayer
 62
    7
370
   -1
100
AcDbLine
 10
25.90955631297652
 20
-7.405050426523502
 11
24.95419162808847
 21
-7.504420991190684
  0
LINE
  5
1F2
100
AcDbEntity
  8
0
  6
ByLayer
 62
    7
370
   -1
100
AcDbLine
 10
24.95419162808847
 20
-7.504420991190684
 11
23.99724146258546
 21
-7.586576402120159
  0
LINE
  5
1F3
100
AcDbEntity
  8
0
  6
ByLayer
 62
    7
370
   -1
100
AcDbLine
 10
23.99724146258546
 20
-7.586576402120159
 11
23.03905405442529
 21
-7.651377883406453
  0
LINE
  5
1F4
100
AcDbEntity
  8
0
  6
ByLayer
 62
    7
370
   -1
100
AcDbLine
 10
23.03905405442529
 20
-7.651377883406453
 11
22.07997764156569
 21
-7.698686659144093
  0
LINE
  5
1F5
100
AcDbEntity
  8
0
  6
ByLayer
 62
    7
370
   -1
100
AcDbLine
 10
22.07997764156569
 20
-7.698686659144093
 11
21.12036046196447
 21
-7.728363953427602
  0
LINE
  5
1F6
100
AcDbEntity
  8
0
  6
ByLayer
 62
    7
370
   -1
100
AcDbLine
 10
21.12036046196447
 20
-7.728363953427602
 11
20.16055075357939
 21
-7.740270990351505
  0
LINE
  5
1F7
100
AcDbEntity
  8
0
  6
ByLayer
 62
    7
370
   -1
100
AcDbLine
 10
20.16055075357939
 20
-7.740270990351505
 11
19.20089675436822
 21
-7.734268994010328
  0
LINE
  5
1F8
100
AcDbEntity
  8
0
  6
ByLayer
 62
    7
370
   -1
100
AcDbLine
 10
19.20089675436822
 20
-7.734268994010328
 11
18.24174670228873
 21
-7.710219188498597
  0
LINE
  5
1F9
100
AcDbEntity
  8
0
  6
ByLayer
 62
    7
370
   -1
100
AcDbLine
 10
18.24174670228873
 20
-7.710219188498597
 11
17.2834488352987
 21
-7.667982797910835
  0
LINE
  5
1FA
100
AcDbEntity
  8
0
  6
ByLayer
 62
    7
370
   -1
100
AcDbLine
 10
17.2834488352987
 20
-7.667982797910835
 11
16.3263513913559
 21
-7.60742104634157
  0
LINE
  5
1FB
100
AcDbEntity
  8
0
  6
ByLayer
 62
    7
370
   -1
100
AcDbLine
 10
16.3263513913559
 20
-7.60742104634157
 11
15.37080260841811
 21
-7.528395157885326
  0
LINE
  5
1FC
100
AcDbEntity
  8
0
  6
ByLayer
 62
    7
370
   -1
100
AcDbLine
 10
15.37080260841811
 20
-7.528395157885326
 11
14.41715072444308
 21
-7.430766356636626
  0
LINE
  5
1FD
100
AcDbEntity
  8
0
  6
ByLayer
 62
    7
370
   -1
100
AcDbLine
 10
14.41715072444308
 20
-7.430766356636626
 11
13.4657439773886
 21
-7.314395866689998
  0
LINE
  5
1FE
100
AcDbEntity
  8
0
  6
ByLayer
 62
    7
370
   -1
100
AcDbLine
 10
13.4657439773886
 20
-7.314395866689998
 11
12.51693060521244
 21
-7.179144912139966
  0
LINE
  5
1FF
100
AcDbEntity
  8
0
  6
ByLayer
 62
    7
370
   -1
100
AcDbLine
 10
12.51693060521244
 20
-7.179144912139966
 11
11.57105884587237
 21
-7.024874717081056
  0
LINE
  5
200
100
AcDbEntity
  8
0
  6
ByLayer
 62
    7
370
   -1
100
AcDbLine
 10
11.57105884587237
 20
-7.024874717081056
 11
10.62847693732617
 21
-6.851446505607793
  0
LINE
  5
201
100
AcDbEntity
  8
0
  6
ByLayer
 62
    7
370
   -1
100
AcDbLine
 10
10.62847693732617
 20
-6.851446505607793
 11
9.689533117531598
 21
-6.658721501814702
  0
LINE
  5
202
100
AcDbEntity
  8
0
  6
ByLayer
 62
    7
370
   -1
100
AcDbLine
 10
9.689533117531598
 20
-6.658721501814702
 11
8.754575624446437
 21
-6.446560929796307
  0
LINE
  5
203
100
AcDbEntity
  8
0
  6
ByLayer
 62
    7
370
   -1
100
AcDbLine
 10
8.754575624446437
 20
-6.446560929796307
 11
7.82395269602846
 21
-6.214826013647135
  0
LINE
  5
204
100
AcDbEntity
  8
0
  6
ByLayer
 62
    7
370
   -1
100
AcDbLine
 10
7.82395269602846
 20
-6.214826013647135
 11
6.898012570235416
 21
-5.963377977461706
  0
LINE
  5
205
100
AcDbEntity
  8
0
  6
ByLayer
 62
    7
370
   -1
100
AcDbLine
 10
6.898012570235416
 20
-5.963377977461706
 11
6.474974661907399
 21
-5.834065586857162
  0
LINE
  5
206
100
AcDbEntity
  8
0
  6
ByLayer
 62
    7
370
   -1
100
AcDbLine
 10
6.474974661907399
 20
-5.834065586857162
 11
6.055278136077451
 21
-5.693849614331901
  0
LINE
  5
207
100
AcDbEntity
  8
0
  6
ByLayer
 62
    7
370
   -1
100
AcDbLine
 10
6.055278136077451
 20
-5.693849614331901
 11
5.639257597928345
 21
-5.542833665270105
  0
LINE
  5
208
100
AcDbEntity
  8
0
  6
ByLayer
 62
    7
370
   -1
100
AcDbLine
 10
5.639257597928345
 20
-5.542833665270105
 11
5.227247652642856
 21
-5.381121345055946
  0
LINE
  5
209
100
AcDbEntity
  8
0
  6
ByLayer
 62
    7
370
   -1
100
AcDbLine
 10
5.227247652642856
 20
-5.381121345055946
 11
4.819582905403758
 21
-5.208816259073601
  0
LINE
  5
20A
100
AcDbEntity
  8
0
  6
ByLayer
 62
    7
370
   -1
100
AcDbLine
 10
4.819582905403758
 20
-5.208816259073601
 11
4.416597961393823
 21
-5.026022012707251
  0
LINE
  5
20B
100
AcDbEntity
  8
0
  6
ByLayer
 62
    7
370
   -1
100
AcDbLine
 10
4.416597961393823
 20
-5.026022012707251
 11
4.018627425795823
 21
-4.832842211341065
  0
LINE
  5
20C
100
AcDbEntity
  8
0
  6
ByLayer
 62
    7
370
   -1
100
AcDbLine
 10
4.018627425795823
 20
-4.832842211341065
 11
3.626005903792533
 21
-4.629380460359225
  0
LINE
  5
20D
100
AcDbEntity
  8
0
  6
ByLayer
 62
    7
370
   -1
100
AcDbLine
 10
3.626005903792533
 20
-4.629380460359225
 11
3.239068000566728
 21
-4.415740365145905
  0
LINE
  5
20E
100
AcDbEntity
  8
0
  6
ByLayer
 62
    7
370
   -1
100
AcDbLine
 10
3.239068000566728
 20
-4.415740365145905
 11
2.858148321301178
 21
-4.192025531085282
  0
LINE
  5
20F
100
AcDbEntity
  8
0
  6
ByLayer
 62
    7
370
   -1
100
AcDbLine
 10
2.858148321301178
 20
-4.192025531085282
 11
2.483581471178658
 21
-3.958339563561534
  0
LINE
  5
210
100
AcDbEntity
  8
0
  6
ByLayer
 62
    7
370
   -1
100
AcDbLine
 10
2.483581471178658
 20
-3.958339563561534
 11
2.115702055381941
 21
-3.714786067958836
  0
LINE
  5
211
100
AcDbEntity
  8
0
  6
ByLayer
 62
    7
370
   -1
100
AcDbLine
 10
2.115702055381941
 20
-3.714786067958836
 11
1.754844679093801
 21
-3.461468649661363
  0
LINE
  5
212
100
AcDbEntity
  8
0
  6
ByLayer
 62
    7
370
   -1
100
AcDbLine
 10
1.754844679093801
 20
-3.461468649661363
 11
1.401343947497011
 21
-3.198490914053294
  0
LINE
  5
213
100
AcDbEntity
  8
0
  6
ByLayer
 62
    7
370
   -1
100
AcDbLine
 10
1.401343947497011
 20
-3.198490914053294
 11
1.055534465774343
 21
-2.925956466518804
  0
LINE
  5
214
100
AcDbEntity
  8
0
  6
ByLayer
 62
    7
370
   -1
100
AcDbLine
 10
1.055534465774343
 20
-2.925956466518804
 11
0.7177508391085721
 21
-2.643968912442069
  0
LINE
  5
215
100
AcDbEntity
  8
0
  6
ByLayer
 62
    7
370
   -1
100
AcDbLine
 10
0.7177508391085721
 20
-2.643968912442069
 11
0.3883276726824706
 21
-2.352631857207268
  0
LINE
  5
216
100
AcDbEntity
  8
0
  6
ByLayer
 62
    7
370
   -1
100
AcDbLine
 10
0.3883276726824706
 20
-2.352631857207268
 11
0.06759957167881203
 21
-2.052048906198574
  0
LINE
  5
217
100
AcDbEntity
  8
0
  6
ByLayer
 62
    7
370
   -1
100
AcDbLine
 10
0.06759957167881203
 20
-2.052048906198574
 11
-0.2440988587196301
 21
-1.742323664800165
  0
LINE
  5
218
100
AcDbEntity
  8
0
  6
ByLayer
 62
    7
370
   -1
100
AcDbLine
 10
-0.2440988587196301
 20
-1.742323664800165
 11
-0.5464330133300824
 21
-1.423559738396218
  0
LINE
  5
219
100
AcDbEntity
  8
0
  6
ByLayer
 62
    7
370
   -1
100
AcDbLine
 10
-0.5464330133300824
 20
-1.423559738396218
 11
-0.8390682869697719
 21
-1.095860732370908
  0
LINE
  5
21A
100
AcDbEntity
  8
0
  6
ByLayer
 62
    7
370
   -1
100
AcDbLine
 10
-0.8390682869697719
 20
-1.095860732370908
 11
-1.121670074455925
 21
-0.7593302521084137
  0
LINE
  5
21B
100
AcDbEntity
  8
0
  6
ByLayer
 62
    7
370
   -1
100
AcDbLine
 10
-1.121670074455925
 20
-0.7593302521084137
 11
-1.393903770605769
 21
-0.4140719029929092
  0
LINE
  5
21C
100
AcDbEntity
  8
0
  6
ByLayer
 62
    7
370
   -1
100
AcDbLine
 10
-1.393903770605769
 20
-0.4140719029929092
 11
-1.65543477023653
 21
-0.06018929040857168
  0
LINE
  5
21D
100
AcDbEntity
  8
0
  6
ByLayer
 62
    7
370
   -1
100
AcDbLine
 10
-1.65543477023653
 20
-0.06018929040857168
 11
-1.905928468165434
 21
0.3022139802604218
  0
LINE
  5
21E
100
AcDbEntity
  8
0
  6
ByLayer
 62
    7
370
   -1
100
AcDbLine
 10
-1.905928468165434
 20
0.3022139802604218
 11
-2.145050259209708
 21
0.6730343036298954
  0
LINE
  5
21F
100
AcDbEntity
  8
0
  6
ByLayer
 62
    7
370
   -1
100
AcDbLine
 10
-2.145050259209708
 20
0.6730343036298954
 11
-2.372465538186581
 21
1.052168074315673
  0
LINE
  5
220
100
AcDbEntity
  8
0
  6
ByLayer
 62
    7
370
   -1
100
AcDbLine
 10
-2.372465538186581
 20
1.052168074315673
 11
-2.587839699913276
 21
1.439511686933577
  0
LINE
  5
221
100
AcDbEntity
  8
0
  6
ByLayer
 62
    7
370
   -1
100
AcDbLine
 10
-2.587839699913276
 20
1.439511686933577
 11
-2.790838139207022
 21
1.834961536099432
  0
LINE
  5
222
100
AcDbEntity
  8
0
  6
ByLayer
 62
    7
370
   -1
100
AcDbLine
 10
-2.790838139207022
 20
1.834961536099432
 11
-2.981126250885045
 21
2.238414016429061
  0
LINE
  5
223
100
AcDbEntity
  8
0
  6
ByLayer
 62
    7
370
   -1
100
AcDbLine
 10
-2.981126250885045
 20
2.238414016429061
 11
-3.158369429764576
 21
2.649765522538297
  0
LINE
  5
224
100
AcDbEntity
  8
0
  6
ByLayer
 62
    7
370
   -1
100
AcDbLine
 10
-3.158369429764576
 20
2.649765522538297
 11
-3.458169085667366
 21
3.275909778924454
  0
LINE
  5
225
100
AcDbEntity
  8
0
  6
ByLayer
 62
    7
370
   -1
100
AcDbLine
 10
-3.458169085667366
 20
3.275909778924454
 11
-3.744107885103439
 21
3.907193702659811
  0
LINE
  5
226
100
AcDbEntity
  8
0
  6
ByLayer
 62
    7
370
   -1
100
AcDbLine
 10
-3.744107885103439
 20
3.907193702659811
 11
-4.016401043406281
 21
4.543406122383888
  0
LINE
  5
227
100
AcDbEntity
  8
0
  6
ByLayer
 62
    7
370
   -1
100
AcDbLine
 10
-4.016401043406281
 20
4.543406122383888
 11
-4.275263775909387
 21
5.18433586673621
  0
LINE
  5
228
100
AcDbEntity
  8
0
  6
ByLayer
 62
    7
370
   -1
100
AcDbLine
 10
-4.275263775909387
 20
5.18433586673621
 11
-4.520911297946244
 21
5.829771764356295
  0
LINE
  5
229
100
AcDbEntity
  8
0
  6
ByLayer
 62
    7
370
   -1
100
AcDbLine
 10
-4.520911297946244
 20
5.829771764356295
 11
-4.753558824850344
 21
6.47950264388367
  0
LINE
  5
22A
100
AcDbEntity
  8
0
  6
ByLayer
 62
    7
370
   -1
100
AcDbLine
 10
-4.753558824850344
 20
6.47950264388367
 11
-4.973421571955174
 21
7.133317333957852
  0
LINE
  5
22B
100
AcDbEntity
  8
0
  6
ByLayer
 62
    7
370
   -1
100
AcDbLine
 10
-4.973421571955174
 20
7.133317333957852
 11
-5.180714754594225
 21
7.791004663218367
  0
LINE
  5
22C
100
AcDbEntity
  8
0
  6
ByLayer
 62
    7
370
   -1
100
AcDbLine
 10
-5.180714754594225
 20
7.791004663218367
 11
-5.37565358810099
 21
8.452353460304733
  0
LINE
  5
22D
100
AcDbEntity
  8
0
  6
ByLayer
 62
    7
370
   -1
100
AcDbLine
 10
-5.37565358810099
 20
8.452353460304733
 11
-5.558453287808955
 21
9.117152553856476
  0
LINE
  5
22E
100
AcDbEntity
  8
0
  6
ByLayer
 62
    7
370
   -1
100
AcDbLine
 10
-5.558453287808955
 20
9.117152553856476
 11
-5.729329069051612
 21
9.78519077251312
  0
LINE
  5
22F
100
AcDbEntity
  8
0
  6
ByLayer
 62
    7
370
   -1
100
AcDbLine
 10
-5.729329069051612
 20
9.78519077251312
 11
-5.888496147162451
 21
10.45625694491418
  0
LINE
  5
230
100
AcDbEntity
  8
0
  6
ByLayer
 62
    7
370
   -1
100
AcDbLine
 10
-5.888496147162451
 20
10.45625694491418
 11
-6.036169737474962
 21
11.13013989969918
  0
LINE
  5
231
100
AcDbEntity
  8
0
  6
ByLayer
 62
    7
370
   -1
100
AcDbLine
 10
-6.036169737474962
 20
11.13013989969918
 11
-6.172565055322634
 21
11.80662846550764
  0
LINE
  5
232
100
AcDbEntity
  8
0
  6
ByLayer
 62
    7
370
   -1
100
AcDbLine
 10
-6.172565055322634
 20
11.80662846550764
 11
-6.297897316038958
 21
12.48551147097909
  0
LINE
  5
233
100
AcDbEntity
  8
0
  6
ByLayer
 62
    7
370
   -1
100
AcDbLine
 10
-6.297897316038958
 20
12.48551147097909
 11
-6.412381734957423
 21
13.16657774475305
  0
LINE
  5
234
100
AcDbEntity
  8
0
  6
ByLayer
 62
    7
370
   -1
100
AcDbLine
 10
-6.412381734957423
 20
13.16657774475305
 11
-6.51623352741152
 21
13.84961611546904
  0
LINE
  5
235
100
AcDbEntity
  8
0
  6
ByLayer
 62
    7
370
   -1
100
AcDbLine
 10
-6.51623352741152
 20
13.84961611546904
 11
-6.609667908734738
 21
14.53441541176658
  0
LINE
  5
236
100
AcDbEntity
  8
0
  6
ByLayer
 62
    7
370
   -1
100
AcDbLine
 10
-6.609667908734738
 20
14.53441541176658
 11
-6.692900094260569
 21
15.22076446228519
  0
LINE
  5
237
100
AcDbEntity
  8
0
  6
ByLayer
 62
    7
370
   -1
100
AcDbLine
 10
-6.692900094260569
 20
15.22076446228519
 11
-6.7661452993225
 21
15.9084520956644
  0
LINE
  5
238
100
AcDbEntity
  8
0
  6
ByLayer
 62
    7
370
   -1
100
AcDbLine
 10
-6.7661452993225
 20
15.9084520956644
 11
-6.829618739254023
 21
16.59726714054372
  0
LINE
  5
239
100
AcDbEntity
  8
0
  6
ByLayer
 62
    7
370
   -1
100
AcDbLine
 10
-6.829618739254023
 20
16.59726714054372
 11
-6.883535629388627
 21
17.28699842556269
  0
LINE
  5
23A
100
AcDbEntity
  8
0
  6
ByLayer
 62
    7
370
   -1
100
AcDbLine
 10
-6.883535629388627
 20
17.28699842556269
 11
-6.928111185059803
 21
17.97743477936082
  0
LINE
  5
23B
100
AcDbEntity
  8
0
  6
ByLayer
 62
    7
370
   -1
100
AcDbLine
 10
-6.928111185059803
 20
17.97743477936082
 11
-6.96356062160104
 21
18.66836503057763
  0
LINE
  5
23C
100
AcDbEntity
  8
0
  6
ByLayer
 62
    7
370
   -1
100
AcDbLine
 10
-6.96356062160104
 20
18.66836503057763
 11
-6.990099154345828
 21
19.35957800785264
  0
LINE
  5
23D
100
AcDbEntity
  8
0
  6
ByLayer
 62
    7
370
   -1
100
AcDbLine
 10
-6.990099154345828
 20
19.35957800785264
 11
-7.007941998627658
 21
20.05086253982538
  0
LINE
  5
23E
100
AcDbEntity
  8
0
  6
ByLayer
 62
    7
370
   -1
100
AcDbLine
 10
-7.007941998627658
 20
20.05086253982538
 11
-7.017304369780019
 21
20.74200745513538
  0
LINE
  5
23F
100
AcDbEntity
  8
0
  6
ByLayer
 62
    7
370
   -1
100
AcDbLine
 10
-7.017304369780019
 20
20.74200745513538
 11
-7.018401483136402
 21
21.43280158242214
  0
LINE
  5
240
100
AcDbEntity
  8
0
  6
ByLayer
 62
    7
370
   -1
100
AcDbLine
 10
-7.018401483136402
 20
21.43280158242214
 11
-7.011448554030295
 21
22.1230337503252
  0
LINE
  5
241
100
AcDbEntity
  8
0
  6
ByLayer
 62
    7
370
   -1
100
AcDbLine
 10
-7.011448554030295
 20
22.1230337503252
 11
-6.996660797795191
 21
22.81249278748408
  0
LINE
  5
242
100
AcDbEntity
  8
0
  6
ByLayer
 62
    7
370
   -1
100
AcDbLine
 10
-6.996660797795191
 20
22.81249278748408
 11
-6.974253429764577
 21
23.5009675225383
  0
LINE
  5
243
100
AcDbEntity
  8
0
  6
ByLayer
 62
    7
370
   -1
100
AcDbLine
 10
-6.974253429764577
 20
23.5009675225383
 11
-6.974253429764577
 21
23.5009675225383
  0
LINE
  5
244
100
AcDbEntity
  8
0
  6
ByLayer
 62
  256
370
   -1
100
AcDbLine
 10
73.1719754298156
 20
34.37390702253829
 11
64.54419242981561
 21
29.0778125225383
  0
LINE
  5
245
100
AcDbEntity
  8
0
  6
ByLayer
 62
  256
370
   -1
100
AcDbLine
 10
65.03467470629596
 20
23.07781252253829
 11
69.0248109298156
 21
6.807556022538293
  0
ARC
  5
246
100
AcDbEntity
  8
0
  6
ByLayer
 62
  256
370
   -1
100
AcDbCircle
 10
62.9754095792321
 20
23.07781252253829
 40
2.05926512706386
100
AcDbArc
 50
360
 51
103.7793338056485
  0
LINE
  5
247
100
AcDbEntity
  8
0
  6
ByLayer
 62
    7
370
   -1
100
AcDbLine
 10
102.5726684298156
 20
37.90423452253829
 11
101.6150234332395
 21
37.99075987826653
  0
LINE
  5
248
100
AcDbEntity
  8
0
  6
ByLayer
 62
    7
370
   -1
100
AcDbLine
 10
101.6150234332395
 20
37.99075987826653
 11
100.655622036811
 21
38.06564248282831
  0
LINE
  5
249
100
AcDbEntity
  8
0
  6
ByLayer
 62
    7
370
   -1
100
AcDbLine
 10
100.655622036811
 20
38.06564248282831
 11
99.69470963048023
 21
38.12870464228923
  0
LINE
  5
24A
100
AcDbEntity
  8
0
  6
ByLayer
 62
    7
370
   -1
100
AcDbLine
 10
99.69470963048023
 20
38.12870464228923
 11
98.73253160419712
 21
38.17976866271485
  0
LINE
  5
24B
100
AcDbEntity
  8
0
  6
ByLayer
 62
    7
370
   -1
100
AcDbLine
 10
98.73253160419712
 20
38.17976866271485
 11
97.76933334791167
 21
38.2186568501708
  0
LINE
  5
24C
100
AcDbEntity
  8
0
  6
ByLayer
 62
    7
370
   -1
100
AcDbLine
 10
97.76933334791167
 20
38.2186568501708
 11
96.80536025157384
 21
38.24519151072264
  0
LINE
  5
24D
100
AcDbEntity
  8
0
  6
ByLayer
 62
    7
370
   -1
100
AcDbLine
 10
96.80536025157384
 20
38.24519151072264
 11
95.84085770513366
 21
38.25919495043597
  0
LINE
  5
24E
100
AcDbEntity
  8
0
  6
ByLayer
 62
    7
370
   -1
100
AcDbLine
 10
95.84085770513366
 20
38.25919495043597
 11
94.87607109854105
 21
38.2604894753764
  0
LINE
  5
24F
100
AcDbEntity
  8
0
  6
ByLayer
 62
    7
370
   -1
100
AcDbLine
 10
94.87607109854105
 20
38.2604894753764
 11
93.91124582174606
 21
38.24889739160947
  0
LINE
  5
250
100
AcDbEntity
  8
0
  6
ByLayer
 62
    7
370
   -1
100
AcDbLine
 10
93.91124582174606
 20
38.24889739160947
 11
92.94662726469862
 21
38.22424100520083
  0
LINE
  5
251
100
AcDbEntity
  8
0
  6
ByLayer
 62
    7
370
   -1
100
AcDbLine
 10
92.94662726469862
 20
38.22424100520083
 11
91.98246081734875
 21
38.18634262221604
  0
LINE
  5
252
100
AcDbEntity
  8
0
  6
ByLayer
 62
    7
370
   -1
100
AcDbLine
 10
91.98246081734875
 20
38.18634262221604
 11
91.01899186964643
 21
38.13502454872069
  0
LINE
  5
253
100
AcDbEntity
  8
0
  6
ByLayer
 62
    7
370
   -1
100
AcDbLine
 10
91.01899186964643
 20
38.13502454872069
 11
90.05646581154163
 21
38.07010909078037
  0
LINE
  5
254
100
AcDbEntity
  8
0
  6
ByLayer
 62
    7
370
   -1
100
AcDbLine
 10
90.05646581154163
 20
38.07010909078037
 11
89.09512803298435
 21
37.99141855446069
  0
LINE
  5
255
100
AcDbEntity
  8
0
  6
ByLayer
 62
    7
370
   -1
100
AcDbLine
 10
89.09512803298435
 20
37.99141855446069
 11
88.13522392392457
 21
37.8987752458272
  0
LINE
  5
256
100
AcDbEntity
  8
0
  6
ByLayer
 62
    7
370
   -1
100
AcDbLine
 10
88.13522392392457
 20
37.8987752458272
 11
87.17699887431226
 21
37.79200147094552
  0
LINE
  5
257
100
AcDbEntity
  8
0
  6
ByLayer
 62
    7
370
   -1
100
AcDbLine
 10
87.17699887431226
 20
37.79200147094552
 11
86.22069827409743
 21
37.67091953588125
  0
LINE
  5
258
100
AcDbEntity
  8
0
  6
ByLayer
 62
    7
370
   -1
100
AcDbLine
 10
86.22069827409743
 20
37.67091953588125
 11
85.26656751323006
 21
37.53535174669994
  0
LINE
  5
259
100
AcDbEntity
  8
0
  6
ByLayer
 62
    7
370
   -1
100
AcDbLine
 10
85.26656751323006
 20
37.53535174669994
 11
84.31485198166013
 21
37.38512040946723
  0
LINE
  5
25A
100
AcDbEntity
  8
0
  6
ByLayer
 62
    7
370
   -1
100
AcDbLine
 10
84.31485198166013
 20
37.38512040946723
 11
83.36579706933762
 21
37.22004783024867
  0
LINE
  5
25B
100
AcDbEntity
  8
0
  6
ByLayer
 62
    7
370
   -1
100
AcDbLine
 10
83.36579706933762
 20
37.22004783024867
 11
82.41964816621251
 21
37.03995631510988
  0
LINE
  5
25C
100
AcDbEntity
  8
0
  6
ByLayer
 62
    7
370
   -1
100
AcDbLine
 10
82.41964816621251
 20
37.03995631510988
 11
81.4766506622348
 21
36.84466817011642
  0
LINE
  5
25D
100
AcDbEntity
  8
0
  6
ByLayer
 62
    7
370
   -1
100
AcDbLine
 10
81.4766506622348
 20
36.84466817011642
 11
80.53704994735446
 21
36.6340057013339
  0
LINE
  5
25E
100
AcDbEntity
  8
0
  6
ByLayer
 62
    7
370
   -1
100
AcDbLine
 10
80.53704994735446
 20
36.6340057013339
 11
79.60109141152151
 21
36.40779121482791
  0
LINE
  5
25F
100
AcDbEntity
  8
0
  6
ByLayer
 62
    7
370
   -1
100
AcDbLine
 10
79.60109141152151
 20
36.40779121482791
 11
78.66902044468588
 21
36.16584701666403
  0
LINE
  5
260
100
AcDbEntity
  8
0
  6
ByLayer
 62
    7
370
   -1
100
AcDbLine
 10
78.66902044468588
 20
36.16584701666403
 11
77.7410824367976
 21
35.90799541290787
  0
LINE
  5
261
100
AcDbEntity
  8
0
  6
ByLayer
 62
    7
370
   -1
100
AcDbLine
 10
77.7410824367976
 20
35.90799541290787
 11
76.81752277780662
 21
35.63405870962499
  0
LINE
  5
262
100
AcDbEntity
  8
0
  6
ByLayer
 62
    7
370
   -1
100
AcDbLine
 10
76.81752277780662
 20
35.63405870962499
 11
75.89858685766295
 21
35.34385921288101
  0
LINE
  5
263
100
AcDbEntity
  8
0
  6
ByLayer
 62
    7
370
   -1
100
AcDbLine
 10
75.89858685766295
 20
35.34385921288101
 11
74.98452006631658
 21
35.03721922874151
  0
LINE
  5
264
100
AcDbEntity
  8
0
  6
ByLayer
 62
    7
370
   -1
100
AcDbLine
 10
74.98452006631658
 20
35.03721922874151
 11
74.07556779371748
 21
34.71396106327207
  0
LINE
  5
265
100
AcDbEntity
  8
0
  6
ByLayer
 62
    7
370
   -1
100
AcDbLine
 10
74.07556779371748
 20
34.71396106327207
 11
73.1719754298156
 21
34.37390702253829
  0
LINE
  5
266
100
AcDbEntity
  8
0
  6
ByLayer
 62
    7
370
   -1
100
AcDbLine
 10
120.9440407500255
 20
22.41468475002551
 11
120.9343735992081
 21
22.80552872807258
  0
LINE
  5
267
100
AcDbEntity
  8
0
  6
ByLayer
 62
    7
370
   -1
100
AcDbLine
 10
120.9343735992081
 20
22.80552872807258
 11
120.910470328086
 21
23.19599062226881
  0
LINE
  5
268
100
AcDbEntity
  8
0
  6
ByLayer
 62
    7
370
   -1
100
AcDbLine
 10
120.910470328086
 20
23.19599062226881
 11
120.8724878860733
 21
23.58554924366453
  0
LINE
  5
269
100
AcDbEntity
  8
0
  6
ByLayer
 62
    7
370
   -1
100
AcDbLine
 10
120.8724878860733
 20
23.58554924366453
 11
120.8205832225843
 21
23.97368340331006
  0
LINE
  5
26A
100
AcDbEntity
  8
0
  6
ByLayer
 62
    7
370
   -1
100
AcDbLine
 10
120.8205832225843
 20
23.97368340331006
 11
120.7549132870333
 21
24.35987191225571
  0
LINE
  5
26B
100
AcDbEntity
  8
0
  6
ByLayer
 62
    7
370
   -1
100
AcDbLine
 10
120.7549132870333
 20
24.35987191225571
 11
120.6756350288345
 21
24.74359358155181
  0
LINE
  5
26C
100
AcDbEntity
  8
0
  6
ByLayer
 62
    7
370
   -1
100
AcDbLine
 10
120.6756350288345
 20
24.74359358155181
 11
120.5829053974022
 21
25.12432722224866
  0
LINE
  5
26D
100
AcDbEntity
  8
0
  6
ByLayer
 62
    7
370
   -1
100
AcDbLine
 10
120.5829053974022
 20
25.12432722224866
 11
120.4768813421506
 21
25.5015516453966
  0
LINE
  5
26E
100
AcDbEntity
  8
0
  6
ByLayer
 62
    7
370
   -1
100
AcDbLine
 10
120.4768813421506
 20
25.5015516453966
 11
120.357719812494
 21
25.87474566204591
  0
LINE
  5
26F
100
AcDbEntity
  8
0
  6
ByLayer
 62
    7
370
   -1
100
AcDbLine
 10
120.357719812494
 20
25.87474566204591
 11
120.2255777578467
 21
26.24338808324695
  0
LINE
  5
270
100
AcDbEntity
  8
0
  6
ByLayer
 62
    7
370
   -1
100
AcDbLine
 10
120.2255777578467
 20
26.24338808324695
 11
120.0806121276228
 21
26.60695772005002
  0
LINE
  5
271
100
AcDbEntity
  8
0
  6
ByLayer
 62
    7
370
   -1
100
AcDbLine
 10
120.0806121276228
 20
26.60695772005002
 11
119.9229798712366
 21
26.96493338350542
  0
LINE
  5
272
100
AcDbEntity
  8
0
  6
ByLayer
 62
    7
370
   -1
100
AcDbLine
 10
119.9229798712366
 20
26.96493338350542
 11
119.7528379381024
 21
27.31679388466348
  0
LINE
  5
273
100
AcDbEntity
  8
0
  6
ByLayer
 62
    7
370
   -1
100
AcDbLine
 10
119.7528379381024
 20
27.31679388466348
 11
119.5703432776345
 21
27.66201803457453
  0
LINE
  5
274
100
AcDbEntity
  8
0
  6
ByLayer
 62
    7
370
   -1
100
AcDbLine
 10
119.5703432776345
 20
27.66201803457453
 11
119.3756528392471
 21
28.00008464428888
  0
LINE
  5
275
100
AcDbEntity
  8
0
  6
ByLayer
 62
    7
370
   -1
100
AcDbLine
 10
119.3756528392471
 20
28.00008464428888
 11
119.1689235723544
 21
28.33047252485683
  0
LINE
  5
276
100
AcDbEntity
  8
0
  6
ByLayer
 62
    7
370
   -1
100
AcDbLine
 10
119.1689235723544
 20
28.33047252485683
 11
118.9503124263707
 21
28.65266048732872
  0
LINE
  5
277
100
AcDbEntity
  8
0
  6
ByLayer
 62
    7
370
   -1
100
AcDbLine
 10
118.9503124263707
 20
28.65266048732872
 11
118.7199763507103
 21
28.96612734275486
  0
LINE
  5
278
100
AcDbEntity
  8
0
  6
ByLayer
 62
    7
370
   -1
100
AcDbLine
 10
118.7199763507103
 20
28.96612734275486
 11
118.4780722947874
 21
29.27035190218555
  0
LINE
  5
279
100
AcDbEntity
  8
0
  6
ByLayer
 62
    7
370
   -1
100
AcDbLine
 10
118.4780722947874
 20
29.27035190218555
 11
118.2247572080162
 21
29.56481297667113
  0
LINE
  5
27A
100
AcDbEntity
  8
0
  6
ByLayer
 62
    7
370
   -1
100
AcDbLine
 10
118.2247572080162
 20
29.56481297667113
 11
117.960188039811
 21
29.84898937726192
  0
LINE
  5
27B
100
AcDbEntity
  8
0
  6
ByLayer
 62
    7
370
   -1
100
AcDbLine
 10
117.960188039811
 20
29.84898937726192
 11
117.6845217395861
 21
30.12235991500822
  0
LINE
  5
27C
100
AcDbEntity
  8
0
  6
ByLayer
 62
    7
370
   -1
100
AcDbLine
 10
117.6845217395861
 20
30.12235991500822
 11
117.3979152567557
 21
30.38440340096035
  0
LINE
  5
27D
100
AcDbEntity
  8
0
  6
ByLayer
 62
    7
370
   -1
100
AcDbLine
 10
117.3979152567557
 20
30.38440340096035
 11
117.1005255407341
 21
30.63459864616864
  0
LINE
  5
27E
100
AcDbEntity
  8
0
  6
ByLayer
 62
    7
370
   -1
100
AcDbLine
 10
117.1005255407341
 20
30.63459864616864
 11
116.7925095409355
 21
30.87242446168339
  0
LINE
  5
27F
100
AcDbEntity
  8
0
  6
ByLayer
 62
    7
370
   -1
100
AcDbLine
 10
116.7925095409355
 20
30.87242446168339
 11
116.4740242067742
 21
31.09735965855493
  0
LINE
  5
280
100
AcDbEntity
  8
0
  6
ByLayer
 62
    7
370
   -1
100
AcDbLine
 10
116.4740242067742
 20
31.09735965855493
 11
116.1452264876644
 21
31.30888304783357
  0
LINE
  5
281
100
AcDbEntity
  8
0
  6
ByLayer
 62
    7
370
   -1
100
AcDbLine
 10
116.1452264876644
 20
31.30888304783357
 11
115.8062733330204
 21
31.50647344056963
  0
LINE
  5
282
100
AcDbEntity
  8
0
  6
ByLayer
 62
    7
370
   -1
100
AcDbLine
 10
115.8062733330204
 20
31.50647344056963
 11
115.4573216922564
 21
31.68960964781343
  0
LINE
  5
283
100
AcDbEntity
  8
0
  6
ByLayer
 62
    7
370
   -1
100
AcDbLine
 10
115.4573216922564
 20
31.68960964781343
 11
115.0985285147867
 21
31.85777048061528
  0
LINE
  5
284
100
AcDbEntity
  8
0
  6
ByLayer
 62
    7
370
   -1
100
AcDbLine
 10
115.0985285147867
 20
31.85777048061528
 11
114.7300507500255
 21
32.01043475002551
  0
LINE
  5
285
100
AcDbEntity
  8
0
  6
ByLayer
 62
    7
370
   -1
100
AcDbLine
 10
114.7300507500255
 20
32.01043475002551
 11
114.3247964577896
 21
32.17645145070693
  0
LINE
  5
286
100
AcDbEntity
  8
0
  6
ByLayer
 62
    7
370
   -1
100
AcDbLine
 10
114.3247964577896
 20
32.17645145070693
 11
113.917310460005
 21
32.33613037420731
  0
LINE
  5
287
100
AcDbEntity
  8
0
  6
ByLayer
 62
    7
370
   -1
100
AcDbLine
 10
113.917310460005
 20
32.33613037420731
 11
113.5076819460243
 21
32.48963378496896
  0
LINE
  5
288
100
AcDbEntity
  8
0
  6
ByLayer
 62
    7
370
   -1
100
AcDbLine
 10
113.5076819460243
 20
32.48963378496896
 11
113.0960001051999
 21
32.63712394743413
  0
LINE
  5
289
100
AcDbEntity
  8
0
  6
ByLayer
 62
    7
370
   -1
100
AcDbLine
 10
113.0960001051999
 20
32.63712394743413
 11
112.6823541268843
 21
32.77876312604511
  0
LINE
  5
28A
100
AcDbEntity
  8
0
  6
ByLayer
 62
    7
370
   -1
100
AcDbLine
 10
112.6823541268843
 20
32.77876312604511
 11
112.26683320043
 21
32.91471358524421
  0
LINE
  5
28B
100
AcDbEntity
  8
0
  6
ByLayer
 62
    7
370
   -1
100
AcDbLine
 10
112.26683320043
 20
32.91471358524421
 11
111.8495265151895
 21
33.04513758947368
  0
LINE
  5
28C
100
AcDbEntity
  8
0
  6
ByLayer
 62
    7
370
   -1
100
AcDbLine
 10
111.8495265151895
 20
33.04513758947368
 11
111.4305232605153
 21
33.17019740317579
  0
LINE
  5
28D
100
AcDbEntity
  8
0
  6
ByLayer
 62
    7
370
   -1
100
AcDbLine
 10
111.4305232605153
 20
33.17019740317579
 11
111.0099126257598
 21
33.29005529079286
  0
LINE
  5
28E
100
AcDbEntity
  8
0
  6
ByLayer
 62
    7
370
   -1
100
AcDbLine
 10
111.0099126257598
 20
33.29005529079286
 11
110.5877838002756
 21
33.40487351676715
  0
LINE
  5
28F
100
AcDbEntity
  8
0
  6
ByLayer
 62
    7
370
   -1
100
AcDbLine
 10
110.5877838002756
 20
33.40487351676715
 11
110.1642259734151
 21
33.51481434554094
  0
LINE
  5
290
100
AcDbEntity
  8
0
  6
ByLayer
 62
    7
370
   -1
100
AcDbLine
 10
110.1642259734151
 20
33.51481434554094
 11
109.7393283345309
 21
33.62004004155651
  0
LINE
  5
291
100
AcDbEntity
  8
0
  6
ByLayer
 62
    7
370
   -1
100
AcDbLine
 10
109.7393283345309
 20
33.62004004155651
 11
109.3131800729754
 21
33.72071286925615
  0
LINE
  5
292
100
AcDbEntity
  8
0
  6
ByLayer
 62
    7
370
   -1
100
AcDbLine
 10
109.3131800729754
 20
33.72071286925615
 11
108.8858703781011
 21
33.81699509308215
  0
LINE
  5
293
100
AcDbEntity
  8
0
  6
ByLayer
 62
    7
370
   -1
100
AcDbLine
 10
108.8858703781011
 20
33.81699509308215
 11
108.4574884392605
 21
33.90904897747676
  0
LINE
  5
294
100
AcDbEntity
  8
0
  6
ByLayer
 62
    7
370
   -1
100
AcDbLine
 10
108.4574884392605
 20
33.90904897747676
 11
108.0281234458061
 21
33.99703678688228
  0
LINE
  5
295
100
AcDbEntity
  8
0
  6
ByLayer
 62
    7
370
   -1
100
AcDbLine
 10
108.0281234458061
 20
33.99703678688228
 11
107.5978645870904
 21
34.081120785741
  0
LINE
  5
296
100
AcDbEntity
  8
0
  6
ByLayer
 62
    7
370
   -1
100
AcDbLine
 10
107.5978645870904
 20
34.081120785741
 11
107.1668010524658
 21
34.16146323849519
  0
LINE
  5
297
100
AcDbEntity
  8
0
  6
ByLayer
 62
    7
370
   -1
100
AcDbLine
 10
107.1668010524658
 20
34.16146323849519
 11
106.735022031285
 21
34.23822640958713
  0
LINE
  5
298
100
AcDbEntity
  8
0
  6
ByLayer
 62
    7
370
   -1
100
AcDbLine
 10
106.735022031285
 20
34.23822640958713
 11
106.3026167129002
 21
34.3115725634591
  0
LINE
  5
299
100
AcDbEntity
  8
0
  6
ByLayer
 62
    7
370
   -1
100
AcDbLine
 10
106.3026167129002
 20
34.3115725634591
 11
105.8696742866641
 21
34.3816639645534
  0
LINE
  5
29A
100
AcDbEntity
  8
0
  6
ByLayer
 62
    7
370
   -1
100
AcDbLine
 10
105.8696742866641
 20
34.3816639645534
 11
105.4362839419291
 21
34.44866287731228
  0
LINE
  5
29B
100
AcDbEntity
  8
0
  6
ByLayer
 62
    7
370
   -1
100
AcDbLine
 10
105.4362839419291
 20
34.44866287731228
 11
105.0025348680477
 21
34.51273156617805
  0
LINE
  5
29C
100
AcDbEntity
  8
0
  6
ByLayer
 62
    7
370
   -1
100
AcDbLine
 10
105.0025348680477
 20
34.51273156617805
 11
104.5685162543725
 21
34.57403229559297
  0
LINE
  5
29D
100
AcDbEntity
  8
0
  6
ByLayer
 62
    7
370
   -1
100
AcDbLine
 10
104.5685162543725
 20
34.57403229559297
 11
104.1343172902558
 21
34.63272732999933
  0
LINE
  5
29E
100
AcDbEntity
  8
0
  6
ByLayer
 62
    7
370
   -1
100
AcDbLine
 10
104.1343172902558
 20
34.63272732999933
 11
103.7000271650502
 21
34.68897893383942
  0
LINE
  5
29F
100
AcDbEntity
  8
0
  6
ByLayer
 62
    7
370
   -1
100
AcDbLine
 10
103.7000271650502
 20
34.68897893383942
 11
103.2657350681082
 21
34.74294937155551
  0
LINE
  5
2A0
100
AcDbEntity
  8
0
  6
ByLayer
 62
    7
370
   -1
100
AcDbLine
 10
103.2657350681082
 20
34.74294937155551
 11
102.8315301887822
 21
34.79480090758989
  0
LINE
  5
2A1
100
AcDbEntity
  8
0
  6
ByLayer
 62
    7
370
   -1
100
AcDbLine
 10
102.8315301887822
 20
34.79480090758989
 11
102.3975017164248
 21
34.84469580638482
  0
LINE
  5
2A2
100
AcDbEntity
  8
0
  6
ByLayer
 62
    7
370
   -1
100
AcDbLine
 10
102.3975017164248
 20
34.84469580638482
 11
101.9637388403884
 21
34.89279633238261
  0
LINE
  5
2A3
100
AcDbEntity
  8
0
  6
ByLayer
 62
    7
370
   -1
100
AcDbLine
 10
101.9637388403884
 20
34.89279633238261
 11
101.5303307500255
 21
34.93926475002552
  0
LINE
  5
2A4
100
AcDbEntity
  8
0
  6
ByLayer
 62
    7
370
   -1
100
AcDbLine
 10
101.5303307500255
 20
34.93926475002552
 11
100.6975959703941
 21
35.01450418978921
  0
LINE
  5
2A5
100
AcDbEntity
  8
0
  6
ByLayer
 62
    7
370
   -1
100
AcDbLine
 10
100.6975959703941
 20
35.01450418978921
 11
99.86333388654324
 21
35.0796194981038
  0
LINE
  5
2A6
100
AcDbEntity
  8
0
  6
ByLayer
 62
    7
370
   -1
100
AcDbLine
 10
99.86333388654324
 20
35.0796194981038
 11
99.02775788103824
 21
35.13445615850459
  0
LINE
  5
2A7
100
AcDbEntity
  8
0
  6
ByLayer
 62
    7
370
   -1
100
AcDbLine
 10
99.02775788103824
 20
35.13445615850459
 11
98.19108133644423
 21
35.17885965452688
  0
LINE
  5
2A8
100
AcDbEntity
  8
0
  6
ByLayer
 62
    7
370
   -1
100
AcDbLine
 10
98.19108133644423
 20
35.17885965452688
 11
97.35351763532644
 21
35.21267546970596
  0
LINE
  5
2A9
100
AcDbEntity
  8
0
  6
ByLayer
 62
    7
370
   -1
100
AcDbLine
 10
97.35351763532644
 20
35.21267546970596
 11
96.51528016025007
 21
35.23574908757713
  0
LINE
  5
2AA
100
AcDbEntity
  8
0
  6
ByLayer
 62
    7
370
   -1
100
AcDbLine
 10
96.51528016025007
 20
35.23574908757713
 11
95.67658229378034
 21
35.24792599167568
  0
LINE
  5
2AB
100
AcDbEntity
  8
0
  6
ByLayer
 62
    7
370
   -1
100
AcDbLine
 10
95.67658229378034
 20
35.24792599167568
 11
94.83763741848242
 21
35.24905166553692
  0
LINE
  5
2AC
100
AcDbEntity
  8
0
  6
ByLayer
 62
    7
370
   -1
100
AcDbLine
 10
94.83763741848242
 20
35.24905166553692
 11
93.99865891692156
 21
35.23897159269611
  0
LINE
  5
2AD
100
AcDbEntity
  8
0
  6
ByLayer
 62
    7
370
   -1
100
AcDbLine
 10
93.99865891692156
 20
35.23897159269611
 11
93.15986017166293
 21
35.21753125668859
  0
LINE
  5
2AE
100
AcDbEntity
  8
0
  6
ByLayer
 62
    7
370
   -1
100
AcDbLine
 10
93.15986017166293
 20
35.21753125668859
 11
92.32145456527172
 21
35.18457614104965
  0
LINE
  5
2AF
100
AcDbEntity
  8
0
  6
ByLayer
 62
    7
370
   -1
100
AcDbLine
 10
92.32145456527172
 20
35.18457614104965
 11
91.48365548031319
 21
35.13995172931456
  0
LINE
  5
2B0
100
AcDbEntity
  8
0
  6
ByLayer
 62
    7
370
   -1
100
AcDbLine
 10
91.48365548031319
 20
35.13995172931456
 11
90.64667629935249
 21
35.08350350501863
  0
LINE
  5
2B1
100
AcDbEntity
  8
0
  6
ByLayer
 62
    7
370
   -1
100
AcDbLine
 10
90.64667629935249
 20
35.08350350501863
 11
89.81073040495485
 21
35.01507695169716
  0
LINE
  5
2B2
100
AcDbEntity
  8
0
  6
ByLayer
 62
    7
370
   -1
100
AcDbLine
 10
89.81073040495485
 20
35.01507695169716
 11
88.97603117968548
 21
34.93451755288544
  0
LINE
  5
2B3
100
AcDbEntity
  8
0
  6
ByLayer
 62
    7
370
   -1
100
AcDbLine
 10
88.97603117968548
 20
34.93451755288544
 11
88.14279200610957
 21
34.84167079211876
  0
LINE
  5
2B4
100
AcDbEntity
  8
0
  6
ByLayer
 62
    7
370
   -1
100
AcDbLine
 10
88.14279200610957
 20
34.84167079211876
 11
87.31122626679232
 21
34.73638215293243
  0
LINE
  5
2B5
100
AcDbEntity
  8
0
  6
ByLayer
 62
    7
370
   -1
100
AcDbLine
 10
87.31122626679232
 20
34.73638215293243
 11
86.48154734429895
 21
34.61849711886174
  0
LINE
  5
2B6
100
AcDbEntity
  8
0
  6
ByLayer
 62
    7
370
   -1
100
AcDbLine
 10
86.48154734429895
 20
34.61849711886174
 11
85.65396862119466
 21
34.48786117344198
  0
LINE
  5
2B7
100
AcDbEntity
  8
0
  6
ByLayer
 62
    7
370
   -1
100
AcDbLine
 10
85.65396862119466
 20
34.48786117344198
 11
84.82870348004465
 21
34.34431980020845
  0
LINE
  5
2B8
100
AcDbEntity
  8
0
  6
ByLayer
 62
    7
370
   -1
100
AcDbLine
 10
84.82870348004465
 20
34.34431980020845
 11
84.00596530341411
 21
34.18771848269645
  0
LINE
  5
2B9
100
AcDbEntity
  8
0
  6
ByLayer
 62
    7
370
   -1
100
AcDbLine
 10
84.00596530341411
 20
34.18771848269645
 11
83.18596747386829
 21
34.01790270444128
  0
LINE
  5
2BA
100
AcDbEntity
  8
0
  6
ByLayer
 62
    7
370
   -1
100
AcDbLine
 10
83.18596747386829
 20
34.01790270444128
 11
82.36892337397235
 21
33.83471794897822
  0
LINE
  5
2BB
100
AcDbEntity
  8
0
  6
ByLayer
 62
    7
370
   -1
100
AcDbLine
 10
82.36892337397235
 20
33.83471794897822
 11
81.55504638629151
 21
33.63800969984257
  0
LINE
  5
2BC
100
AcDbEntity
  8
0
  6
ByLayer
 62
    7
370
   -1
100
AcDbLine
 10
81.55504638629151
 20
33.63800969984257
 11
80.74454989339097
 21
33.42762344056963
  0
LINE
  5
2BD
100
AcDbEntity
  8
0
  6
ByLayer
 62
    7
370
   -1
100
AcDbLine
 10
80.74454989339097
 20
33.42762344056963
 11
79.93764727783594
 21
33.20340465469471
  0
LINE
  5
2BE
100
AcDbEntity
  8
0
  6
ByLayer
 62
    7
370
   -1
100
AcDbLine
 10
79.93764727783594
 20
33.20340465469471
 11
79.1345519221916
 21
32.96519882575308
  0
LINE
  5
2BF
100
AcDbEntity
  8
0
  6
ByLayer
 62
    7
370
   -1
100
AcDbLine
 10
79.1345519221916
 20
32.96519882575308
 11
78.33547720902321
 21
32.71285143728005
  0
LINE
  5
2C0
100
AcDbEntity
  8
0
  6
ByLayer
 62
    7
370
   -1
100
AcDbLine
 10
78.33547720902321
 20
32.71285143728005
 11
77.54063652089593
 21
32.44620797281092
  0
LINE
  5
2C1
100
AcDbEntity
  8
0
  6
ByLayer
 62
    7
370
   -1
100
AcDbLine
 10
77.54063652089593
 20
32.44620797281092
 11
76.75024324037497
 21
32.16511391588097
  0
LINE
  5
2C2
100
AcDbEntity
  8
0
  6
ByLayer
 62
    7
370
   -1
100
AcDbLine
 10
76.75024324037497
 20
32.16511391588097
 11
75.96451075002551
 21
31.86941475002551
  0
LINE
  5
2C3
100
AcDbEntity
  8
0
  6
ByLayer
 62
    7
370
   -1
100
AcDbLine
 10
75.96451075002551
 20
31.86941475002551
 11
75.67391524735692
 21
31.73997156147864
  0
LINE
  5
2C4
100
AcDbEntity
  8
0
  6
ByLayer
 62
    7
370
   -1
100
AcDbLine
 10
75.67391524735692
 20
31.73997156147864
 11
75.37948375261018
 21
31.60931411157767
  0
LINE
  5
2C5
100
AcDbEntity
  8
0
  6
ByLayer
 62
    7
370
   -1
100
AcDbLine
 10
75.37948375261018
 20
31.60931411157767
 11
75.08194814051257
 21
31.47704928360949
  0
LINE
  5
2C6
100
AcDbEntity
  8
0
  6
ByLayer
 62
    7
370
   -1
100
AcDbLine
 10
75.08194814051257
 20
31.47704928360949
 11
74.78204028579134
 21
31.342783960861
  0
LINE
  5
2C7
100
AcDbEntity
  8
0
  6
ByLayer
 62
    7
370
   -1
100
AcDbLine
 10
74.78204028579134
 20
31.342783960861
 11
74.48049206317378
 21
31.20612502661912
  0
LINE
  5
2C8
100
AcDbEntity
  8
0
  6
ByLayer
 62
    7
370
   -1
100
AcDbLine
 10
74.48049206317378
 20
31.20612502661912
 11
74.17803534738712
 21
31.06667936417073
  0
LINE
  5
2C9
100
AcDbEntity
  8
0
  6
ByLayer
 62
    7
370
   -1
100
AcDbLine
 10
74.17803534738712
 20
31.06667936417073
 11
73.87540201315866
 21
30.92405385680273
  0
LINE
  5
2CA
100
AcDbEntity
  8
0
  6
ByLayer
 62
    7
370
   -1
100
AcDbLine
 10
73.87540201315866
 20
30.92405385680273
 11
73.57332393521567
 21
30.77785538780202
  0
LINE
  5
2CB
100
AcDbEntity
  8
0
  6
ByLayer
 62
    7
370
   -1
100
AcDbLine
 10
73.57332393521567
 20
30.77785538780202
 11
73.27253298828541
 21
30.62769084045551
  0
LINE
  5
2CC
100
AcDbEntity
  8
0
  6
ByLayer
 62
    7
370
   -1
100
AcDbLine
 10
73.27253298828541
 20
30.62769084045551
 11
72.97376104709511
 21
30.47316709805008
  0
LINE
  5
2CD
100
AcDbEntity
  8
0
  6
ByLayer
 62
    7
370
   -1
100
AcDbLine
 10
72.97376104709511
 20
30.47316709805008
 11
72.67773998637206
 21
30.31389104387265
  0
LINE
  5
2CE
100
AcDbEntity
  8
0
  6
ByLayer
 62
    7
370
   -1
100
AcDbLine
 10
72.67773998637206
 20
30.31389104387265
 11
72.38520168084355
 21
30.1494695612101
  0
LINE
  5
2CF
100
AcDbEntity
  8
0
  6
ByLayer
 62
    7
370
   -1
100
AcDbLine
 10
72.38520168084355
 20
30.1494695612101
 11
72.09687800523682
 21
29.97950953334934
  0
LINE
  5
2D0
100
AcDbEntity
  8
0
  6
ByLayer
 62
    7
370
   -1
100
AcDbLine
 10
72.09687800523682
 20
29.97950953334934
 11
71.81350083427915
 21
29.80361784357726
  0
LINE
  5
2D1
100
AcDbEntity
  8
0
  6
ByLayer
 62
    7
370
   -1
100
AcDbLine
 10
71.81350083427915
 20
29.80361784357726
 11
71.53580204269778
 21
29.62140137518077
  0
LINE
  5
2D2
100
AcDbEntity
  8
0
  6
ByLayer
 62
    7
370
   -1
100
AcDbLine
 10
71.53580204269778
 20
29.62140137518077
 11
71.26451350522004
 21
29.43246701144675
  0
LINE
  5
2D3
100
AcDbEntity
  8
0
  6
ByLayer
 62
    7
370
   -1
100
AcDbLine
 10
71.26451350522004
 20
29.43246701144675
 11
71.00036709657313
 21
29.23642163566212
  0
LINE
  5
2D4
100
AcDbEntity
  8
0
  6
ByLayer
 62
    7
370
   -1
100
AcDbLine
 10
71.00036709657313
 20
29.23642163566212
 11
70.74409469148434
 21
29.03287213111376
  0
LINE
  5
2D5
100
AcDbEntity
  8
0
  6
ByLayer
 62
    7
370
   -1
100
AcDbLine
 10
70.74409469148434
 20
29.03287213111376
 11
70.49642816468094
 21
28.82142538108859
  0
LINE
  5
2D6
100
AcDbEntity
  8
0
  6
ByLayer
 62
    7
370
   -1
100
AcDbLine
 10
70.49642816468094
 20
28.82142538108859
 11
70.25809939089021
 21
28.60168826887348
  0
LINE
  5
2D7
100
AcDbEntity
  8
0
  6
ByLayer
 62
    7
370
   -1
100
AcDbLine
 10
70.25809939089021
 20
28.60168826887348
 11
70.02984024483938
 21
28.37326767775536
  0
LINE
  5
2D8
100
AcDbEntity
  8
0
  6
ByLayer
 62
    7
370
   -1
100
AcDbLine
 10
70.02984024483938
 20
28.37326767775536
 11
69.81238260125575
 21
28.13577049102112
  0
LINE
  5
2D9
100
AcDbEntity
  8
0
  6
ByLayer
 62
    7
370
   -1
100
AcDbLine
 10
69.81238260125575
 20
28.13577049102112
 11
69.60645833486657
 21
27.88880359195764
  0
LINE
  5
2DA
100
AcDbEntity
  8
0
  6
ByLayer
 62
    7
370
   -1
100
AcDbLine
 10
69.60645833486657
 20
27.88880359195764
 11
69.41279932039912
 21
27.63197386385184
  0
LINE
  5
2DB
100
AcDbEntity
  8
0
  6
ByLayer
 62
    7
370
   -1
100
AcDbLine
 10
69.41279932039912
 20
27.63197386385184
 11
69.23213743258064
 21
27.3648881899906
  0
LINE
  5
2DC
100
AcDbEntity
  8
0
  6
ByLayer
 62
    7
370
   -1
100
AcDbLine
 10
69.23213743258064
 20
27.3648881899906
 11
69.06520454613843
 21
27.08715345366084
  0
LINE
  5
2DD
100
AcDbEntity
  8
0
  6
ByLayer
 62
    7
370
   -1
100
AcDbLine
 10
69.06520454613843
 20
27.08715345366084
 11
68.91273253579973
 21
26.79837653814945
  0
LINE
  5
2DE
100
AcDbEntity
  8
0
  6
ByLayer
 62
    7
370
   -1
100
AcDbLine
 10
68.91273253579973
 20
26.79837653814945
 11
68.77545327629184
 21
26.49816432674331
  0
LINE
  5
2DF
100
AcDbEntity
  8
0
  6
ByLayer
 62
    7
370
   -1
100
AcDbLine
 10
68.77545327629184
 20
26.49816432674331
 11
68.65409864234199
 21
26.18612370272935
  0
LINE
  5
2E0
100
AcDbEntity
  8
0
  6
ByLayer
 62
    7
370
   -1
100
AcDbLine
 10
68.65409864234199
 20
26.18612370272935
 11
68.54940050867745
 21
25.86186154939445
  0
LINE
  5
2E1
100
AcDbEntity
  8
0
  6
ByLayer
 62
    7
370
   -1
100
AcDbLine
 10
68.54940050867745
 20
25.86186154939445
 11
68.46209075002551
 21
25.52498475002551
  0
LINE
  5
2E2
100
AcDbEntity
  8
0
  6
ByLayer
 62
    7
370
   -1
100
AcDbLine
 10
68.46209075002551
 20
25.52498475002551
 11
68.40564177181059
 21
24.93377777442886
  0
LINE
  5
2E3
100
AcDbEntity
  8
0
  6
ByLayer
 62
    7
370
   -1
100
AcDbLine
 10
68.40564177181059
 20
24.93377777442886
 11
68.36753438736564
 21
24.34374018354571
  0
LINE
  5
2E4
100
AcDbEntity
  8
0
  6
ByLayer
 62
    7
370
   -1
100
AcDbLine
 10
68.36753438736564
 20
24.34374018354571
 11
68.3471272768289
 21
23.75490698123628
  0
LINE
  5
2E5
100
AcDbEntity
  8
0
  6
ByLayer
 62
    7
370
   -1
100
AcDbLine
 10
68.3471272768289
 20
23.75490698123628
 11
68.3437791203387
 21
23.16731317136081
  0
LINE
  5
2E6
100
AcDbEntity
  8
0
  6
ByLayer
 62
    7
370
   -1
100
AcDbLine
 10
68.3437791203387
 20
23.16731317136081
 11
68.35684859803331
 21
22.58099375777953
  0
LINE
  5
2E7
100
AcDbEntity
  8
0
  6
ByLayer
 62
    7
370
   -1
100
AcDbLine
 10
68.35684859803331
 20
22.58099375777953
 11
68.38569439005101
 21
21.99598374435266
  0
LINE
  5
2E8
100
AcDbEntity
  8
0
  6
ByLayer
 62
    7
370
   -1
100
AcDbLine
 10
68.38569439005101
 20
21.99598374435266
 11
68.42967517653017
 21
21.41231813494042
  0
LINE
  5
2E9
100
AcDbEntity
  8
0
  6
ByLayer
 62
    7
370
   -1
100
AcDbLine
 10
68.42967517653017
 20
21.41231813494042
 11
68.48814963760901
 21
20.83003193340304
  0
LINE
  5
2EA
100
AcDbEntity
  8
0
  6
ByLayer
 62
    7
370
   -1
100
AcDbLine
 10
68.48814963760901
 20
20.83003193340304
 11
68.56047645342588
 21
20.24916014360075
  0
LINE
  5
2EB
100
AcDbEntity
  8
0
  6
ByLayer
 62
    7
370
   -1
100
AcDbLine
 10
68.56047645342588
 20
20.24916014360075
 11
68.64601430411903
 21
19.66973776939378
  0
LINE
  5
2EC
100
AcDbEntity
  8
0
  6
ByLayer
 62
    7
370
   -1
100
AcDbLine
 10
68.64601430411903
 20
19.66973776939378
 11
68.74412186982678
 21
19.09179981464234
  0
LINE
  5
2ED
100
AcDbEntity
  8
0
  6
ByLayer
 62
    7
370
   -1
100
AcDbLine
 10
68.74412186982678
 20
19.09179981464234
 11
68.85415783068746
 21
18.51538128320667
  0
LINE
  5
2EE
100
AcDbEntity
  8
0
  6
ByLayer
 62
    7
370
   -1
100
AcDbLine
 10
68.85415783068746
 20
18.51538128320667
 11
68.97548086683931
 21
17.940517178947
  0
LINE
  5
2EF
100
AcDbEntity
  8
0
  6
ByLayer
 62
    7
370
   -1
100
AcDbLine
 10
68.97548086683931
 20
17.940517178947
 11
69.10744965842065
 21
17.36724250572354
  0
LINE
  5
2F0
100
AcDbEntity
  8
0
  6
ByLayer
 62
    7
370
   -1
100
AcDbLine
 10
69.10744965842065
 20
17.36724250572354
 11
69.2494228855698
 21
16.79559226739653
  0
LINE
  5
2F1
100
AcDbEntity
  8
0
  6
ByLayer
 62
    7
370
   -1
100
AcDbLine
 10
69.2494228855698
 20
16.79559226739653
 11
69.40075922842502
 21
16.22560146782619
  0
LINE
  5
2F2
100
AcDbEntity
  8
0
  6
ByLayer
 62
    7
370
   -1
100
AcDbLine
 10
69.40075922842502
 20
16.22560146782619
 11
69.56081736712463
 21
15.65730511087276
  0
LINE
  5
2F3
100
AcDbEntity
  8
0
  6
ByLayer
 62
    7
370
   -1
100
AcDbLine
 10
69.56081736712463
 20
15.65730511087276
 11
69.72895598180692
 21
15.09073820039644
  0
LINE
  5
2F4
100
AcDbEntity
  8
0
  6
ByLayer
 62
    7
370
   -1
100
AcDbLine
 10
69.72895598180692
 20
15.09073820039644
 11
69.90453375261018
 21
14.52593574025746
  0
LINE
  5
2F5
100
AcDbEntity
  8
0
  6
ByLayer
 62
    7
370
   -1
100
AcDbLine
 10
69.90453375261018
 20
14.52593574025746
 11
70.08690935967272
 21
13.96293273431607
  0
LINE
  5
2F6
100
AcDbEntity
  8
0
  6
ByLayer
 62
    7
370
   -1
100
AcDbLine
 10
70.08690935967272
 20
13.96293273431607
 11
70.27544148313282
 21
13.40176418643248
  0
LINE
  5
2F7
100
AcDbEntity
  8
0
  6
ByLayer
 62
    7
370
   -1
100
AcDbLine
 10
70.27544148313282
 20
13.40176418643248
 11
70.4694888031288
 21
12.84246510046693
  0
LINE
  5
2F8
100
AcDbEntity
  8
0
  6
ByLayer
 62
    7
370
   -1
100
AcDbLine
 10
70.4694888031288
 20
12.84246510046693
 11
70.66840999979893
 21
12.28507048027963
  0
LINE
  5
2F9
100
AcDbEntity
  8
0
  6
ByLayer
 62
    7
370
   -1
100
AcDbLine
 10
70.66840999979893
 20
12.28507048027963
 11
70.87156375328152
 21
11.72961532973079
  0
LINE
  5
2FA
100
AcDbEntity
  8
0
  6
ByLayer
 62
    7
370
   -1
100
AcDbLine
 10
70.87156375328152
 20
11.72961532973079
 11
71.07830874371487
 21
11.17613465268068
  0
LINE
  5
2FB
100
AcDbEntity
  8
0
  6
ByLayer
 62
    7
370
   -1
100
AcDbLine
 10
71.07830874371487
 20
11.17613465268068
 11
71.28800365123729
 21
10.6246634529895
  0
LINE
  5
2FC
100
AcDbEntity
  8
0
  6
ByLayer
 62
    7
370
   -1
100
AcDbLine
 10
71.28800365123729
 20
10.6246634529895
 11
71.50000715598703
 21
10.07523673451747
  0
LINE
  5
2FD
100
AcDbEntity
  8
0
  6
ByLayer
 62
    7
370
   -1
100
AcDbLine
 10
71.50000715598703
 20
10.07523673451747
 11
71.71367793810245
 21
9.527889501124847
  0
LINE
  5
2FE
100
AcDbEntity
  8
0
  6
ByLayer
 62
    7
370
   -1
100
AcDbLine
 10
71.71367793810245
 20
9.527889501124847
 11
71.92837467772179
 21
8.982656756671828
  0
LINE
  5
2FF
100
AcDbEntity
  8
0
  6
ByLayer
 62
    7
370
   -1
100
AcDbLine
 10
71.92837467772179
 20
8.982656756671828
 11
72.14345605498337
 21
8.439573505018645
  0
LINE
  5
300
100
AcDbEntity
  8
0
  6
ByLayer
 62
    7
370
   -1
100
AcDbLine
 10
72.14345605498337
 20
8.439573505018645
 11
72.3582807500255
 21
7.898674750025501
  0
LINE
  5
301
100
AcDbEntity
  8
0
  6
ByLayer
 62
    7
370
   -1
100
AcDbLine
 10
72.3582807500255
 20
7.898674750025501
 11
72.56558560619011
 21
7.440963122352722
  0
LINE
  5
302
100
AcDbEntity
  8
0
  6
ByLayer
 62
    7
370
   -1
100
AcDbLine
 10
72.56558560619011
 20
7.440963122352722
 11
72.78300059830184
 21
6.98564235299285
  0
LINE
  5
303
100
AcDbEntity
  8
0
  6
ByLayer
 62
    7
370
   -1
100
AcDbLine
 10
72.78300059830184
 20
6.98564235299285
 11
73.01050410372294
 21
6.533295870498149
  0
LINE
  5
304
100
AcDbEntity
  8
0
  6
ByLayer
 62
    7
370
   -1
100
AcDbLine
 10
73.01050410372294
 20
6.533295870498149
 11
73.24807449981571
 21
6.084507103420841
  0
LINE
  5
305
100
AcDbEntity
  8
0
  6
ByLayer
 62
    7
370
   -1
100
AcDbLine
 10
73.24807449981571
 20
6.084507103420841
 11
73.49569016394247
 21
5.639859480313172
  0
LINE
  5
306
100
AcDbEntity
  8
0
  6
ByLayer
 62
    7
370
   -1
100
AcDbLine
 10
73.49569016394247
 20
5.639859480313172
 11
73.75332947346547
 21
5.199936429727432
  0
LINE
  5
307
100
AcDbEntity
  8
0
  6
ByLayer
 62
    7
370
   -1
100
AcDbLine
 10
73.75332947346547
 20
5.199936429727432
 11
74.02097080574704
 21
4.765321380215838
  0
LINE
  5
308
100
AcDbEntity
  8
0
  6
ByLayer
 62
    7
370
   -1
100
AcDbLine
 10
74.02097080574704
 20
4.765321380215838
 11
74.29859253814944
 21
4.336597760330643
  0
LINE
  5
309
100
AcDbEntity
  8
0
  6
ByLayer
 62
    7
370
   -1
100
AcDbLine
 10
74.29859253814944
 20
4.336597760330643
 11
74.58617304803498
 21
3.914348998624073
  0
LINE
  5
30A
100
AcDbEntity
  8
0
  6
ByLayer
 62
    7
370
   -1
100
AcDbLine
 10
74.58617304803498
 20
3.914348998624073
 11
74.88369071276594
 21
3.499158523648418
  0
LINE
  5
30B
100
AcDbEntity
  8
0
  6
ByLayer
 62
    7
370
   -1
100
AcDbLine
 10
74.88369071276594
 20
3.499158523648418
 11
75.1911239097046
 21
3.091609763955893
  0
LINE
  5
30C
100
AcDbEntity
  8
0
  6
ByLayer
 62
    7
370
   -1
100
AcDbLine
 10
75.1911239097046
 20
3.091609763955893
 11
75.50845101621329
 21
2.692286148098754
  0
LINE
  5
30D
100
AcDbEntity
  8
0
  6
ByLayer
 62
    7
370
   -1
100
AcDbLine
 10
75.50845101621329
 20
2.692286148098754
 11
75.83565040965425
 21
2.30177110462926
  0
LINE
  5
30E
100
AcDbEntity
  8
0
  6
ByLayer
 62
    7
370
   -1
100
AcDbLine
 10
75.83565040965425
 20
2.30177110462926
 11
76.1727004673898
 21
1.920648062099622
  0
LINE
  5
30F
100
AcDbEntity
  8
0
  6
ByLayer
 62
    7
370
   -1
100
AcDbLine
 10
76.1727004673898
 20
1.920648062099622
 11
76.51957956678226
 21
1.549500449062137
  0
LINE
  5
310
100
AcDbEntity
  8
0
  6
ByLayer
 62
    7
370
   -1
100
AcDbLine
 10
76.51957956678226
 20
1.549500449062137
 11
76.87626608519385
 21
1.188911694069015
  0
LINE
  5
311
100
AcDbEntity
  8
0
  6
ByLayer
 62
    7
370
   -1
100
AcDbLine
 10
76.87626608519385
 20
1.188911694069015
 11
77.24273839998691
 21
0.8394652256725235
  0
LINE
  5
312
100
AcDbEntity
  8
0
  6
ByLayer
 62
    7
370
   -1
100
AcDbLine
 10
77.24273839998691
 20
0.8394652256725235
 11
77.6189748885237
 21
0.5017444724249019
  0
LINE
  5
313
100
AcDbEntity
  8
0
  6
ByLayer
 62
    7
370
   -1
100
AcDbLine
 10
77.6189748885237
 20
0.5017444724249019
 11
78.00495392816656
 21
0.1763328628783959
  0
LINE
  5
314
100
AcDbEntity
  8
0
  6
ByLayer
 62
    7
370
   -1
100
AcDbLine
 10
78.00495392816656
 20
0.1763328628783959
 11
78.40065389627773
 21
-0.1361861744147617
  0
LINE
  5
315
100
AcDbEntity
  8
0
  6
ByLayer
 62
    7
370
   -1
100
AcDbLine
 10
78.40065389627773
 20
-0.1361861744147617
 11
78.80605317021951
 21
-0.4352292109022823
  0
LINE
  5
316
100
AcDbEntity
  8
0
  6
ByLayer
 62
    7
370
   -1
100
AcDbLine
 10
78.80605317021951
 20
-0.4352292109022823
 11
79.22113012735423
 21
-0.720212818031948
  0
LINE
  5
317
100
AcDbEntity
  8
0
  6
ByLayer
 62
    7
370
   -1
100
AcDbLine
 10
79.22113012735423
 20
-0.720212818031948
 11
79.64586314504413
 21
-0.9905535672515123
  0
LINE
  5
318
100
AcDbEntity
  8
0
  6
ByLayer
 62
    7
370
   -1
100
AcDbLine
 10
79.64586314504413
 20
-0.9905535672515123
 11
80.08023060065153
 21
-1.245668030008722
  0
LINE
  5
319
100
AcDbEntity
  8
0
  6
ByLayer
 62
    7
370
   -1
100
AcDbLine
 10
80.08023060065153
 20
-1.245668030008722
 11
80.52421087153871
 21
-1.484972777751324
  0
LINE
  5
31A
100
AcDbEntity
  8
0
  6
ByLayer
 62
    7
370
   -1
100
AcDbLine
 10
80.52421087153871
 20
-1.484972777751324
 11
80.97778233506796
 21
-1.707884381927079
  0
LINE
  5
31B
100
AcDbEntity
  8
0
  6
ByLayer
 62
    7
370
   -1
100
AcDbLine
 10
80.97778233506796
 20
-1.707884381927079
 11
81.44092336860157
 21
-1.913819413983741
  0
LINE
  5
31C
100
AcDbEntity
  8
0
  6
ByLayer
 62
    7
370
   -1
100
AcDbLine
 10
81.44092336860157
 20
-1.913819413983741
 11
81.91361234950185
 21
-2.102194445369077
  0
LINE
  5
31D
100
AcDbEntity
  8
0
  6
ByLayer
 62
    7
370
   -1
100
AcDbLine
 10
81.91361234950185
 20
-2.102194445369077
 11
82.39582765513107
 21
-2.272426047530799
  0
LINE
  5
31E
100
AcDbEntity
  8
0
  6
ByLayer
 62
    7
370
   -1
100
AcDbLine
 10
82.39582765513107
 20
-2.272426047530799
 11
82.88754766285152
 21
-2.423930791916681
  0
LINE
  5
31F
100
AcDbEntity
  8
0
  6
ByLayer
 62
    7
370
   -1
100
AcDbLine
 10
82.88754766285152
 20
-2.423930791916681
 11
83.38875075002551
 21
-2.556125249974489
  0
LINE
  5
320
100
AcDbEntity
  8
0
  6
ByLayer
 62
    7
370
   -1
100
AcDbLine
 10
83.38875075002551
 20
-2.556125249974489
 11
84.18435135255646
 21
-2.799236594340235
  0
LINE
  5
321
100
AcDbEntity
  8
0
  6
ByLayer
 62
    7
370
   -1
100
AcDbLine
 10
84.18435135255646
 20
-2.799236594340235
 11
84.98466160565303
 21
-3.028705661508172
  0
LINE
  5
322
100
AcDbEntity
  8
0
  6
ByLayer
 62
    7
370
   -1
100
AcDbLine
 10
84.98466160565303
 20
-3.028705661508172
 11
85.78937869369977
 21
-3.244411776777882
  0
LINE
  5
323
100
AcDbEntity
  8
0
  6
ByLayer
 62
    7
370
   -1
100
AcDbLine
 10
85.78937869369977
 20
-3.244411776777882
 11
86.59819980108119
 21
-3.446234265448961
  0
LINE
  5
324
100
AcDbEntity
  8
0
  6
ByLayer
 62
    7
370
   -1
100
AcDbLine
 10
86.59819980108119
 20
-3.446234265448961
 11
87.41082211218186
 21
-3.634052452820984
  0
LINE
  5
325
100
AcDbEntity
  8
0
  6
ByLayer
 62
    7
370
   -1
100
AcDbLine
 10
87.41082211218186
 20
-3.634052452820984
 11
88.22694281138632
 21
-3.807745664193553
  0
LINE
  5
326
100
AcDbEntity
  8
0
  6
ByLayer
 62
    7
370
   -1
100
AcDbLine
 10
88.22694281138632
 20
-3.807745664193553
 11
89.04625908307912
 21
-3.967193224866216
  0
LINE
  5
327
100
AcDbEntity
  8
0
  6
ByLayer
 62
    7
370
   -1
100
AcDbLine
 10
89.04625908307912
 20
-3.967193224866216
 11
89.86846811164479
 21
-4.112274460138619
  0
LINE
  5
328
100
AcDbEntity
  8
0
  6
ByLayer
 62
    7
370
   -1
100
AcDbLine
 10
89.86846811164479
 20
-4.112274460138619
 11
90.69326708146789
 21
-4.242868695310321
  0
LINE
  5
329
100
AcDbEntity
  8
0
  6
ByLayer
 62
    7
370
   -1
100
AcDbLine
 10
90.69326708146789
 20
-4.242868695310321
 11
91.52035317693296
 21
-4.3588552556809
  0
LINE
  5
32A
100
AcDbEntity
  8
0
  6
ByLayer
 62
    7
370
   -1
100
AcDbLine
 10
91.52035317693296
 20
-4.3588552556809
 11
92.34942358242455
 21
-4.460113466549955
  0
LINE
  5
32B
100
AcDbEntity
  8
0
  6
ByLayer
 62
    7
370
   -1
100
AcDbLine
 10
92.34942358242455
 20
-4.460113466549955
 11
93.1801754823272
 21
-4.546522653217064
  0
LINE
  5
32C
100
AcDbEntity
  8
0
  6
ByLayer
 62
    7
370
   -1
100
AcDbLine
 10
93.1801754823272
 20
-4.546522653217064
 11
94.01230606102547
 21
-4.61796214098183
  0
LINE
  5
32D
100
AcDbEntity
  8
0
  6
ByLayer
 62
    7
370
   -1
100
AcDbLine
 10
94.01230606102547
 20
-4.61796214098183
 11
94.84551250290389
 21
-4.674311255143813
  0
LINE
  5
32E
100
AcDbEntity
  8
0
  6
ByLayer
 62
    7
370
   -1
100
AcDbLine
 10
94.84551250290389
 20
-4.674311255143813
 11
95.67949199234701
 21
-4.715449321002631
  0
LINE
  5
32F
100
AcDbEntity
  8
0
  6
ByLayer
 62
    7
370
   -1
100
AcDbLine
 10
95.67949199234701
 20
-4.715449321002631
 11
96.51394171373937
 21
-4.741255663857858
  0
LINE
  5
330
100
AcDbEntity
  8
0
  6
ByLayer
 62
    7
370
   -1
100
AcDbLine
 10
96.51394171373937
 20
-4.741255663857858
 11
97.34855885146553
 21
-4.751609609009085
  0
LINE
  5
331
100
AcDbEntity
  8
0
  6
ByLayer
 62
    7
370
   -1
100
AcDbLine
 10
97.34855885146553
 20
-4.751609609009085
 11
98.18304058991004
 21
-4.746390481755886
  0
LINE
  5
332
100
AcDbEntity
  8
0
  6
ByLayer
 62
    7
370
   -1
100
AcDbLine
 10
98.18304058991004
 20
-4.746390481755886
 11
99.01708411345741
 21
-4.725477607397862
  0
LINE
  5
333
100
AcDbEntity
  8
0
  6
ByLayer
 62
    7
370
   -1
100
AcDbLine
 10
99.01708411345741
 20
-4.725477607397862
 11
99.85038660649222
 21
-4.688750311234592
  0
LINE
  5
334
100
AcDbEntity
  8
0
  6
ByLayer
 62
    7
370
   -1
100
AcDbLine
 10
99.85038660649222
 20
-4.688750311234592
 11
100.682645253399
 21
-4.636087918565662
  0
LINE
  5
335
100
AcDbEntity
  8
0
  6
ByLayer
 62
    7
370
   -1
100
AcDbLine
 10
100.682645253399
 20
-4.636087918565662
 11
101.5135572385623
 21
-4.567369754690662
  0
LINE
  5
336
100
AcDbEntity
  8
0
  6
ByLayer
 62
    7
370
   -1
100
AcDbLine
 10
101.5135572385623
 20
-4.567369754690662
 11
102.3428197463667
 21
-4.482475144909182
  0
LINE
  5
337
100
AcDbEntity
  8
0
  6
ByLayer
 62
    7
370
   -1
100
AcDbLine
 10
102.3428197463667
 20
-4.482475144909182
 11
103.1701299611967
 21
-4.38128341452081
  0
LINE
  5
338
100
AcDbEntity
  8
0
  6
ByLayer
 62
    7
370
   -1
100
AcDbLine
 10
103.1701299611967
 20
-4.38128341452081
 11
103.9951850674368
 21
-4.263673888825135
  0
LINE
  5
339
100
AcDbEntity
  8
0
  6
ByLayer
 62
    7
370
   -1
100
AcDbLine
 10
103.9951850674368
 20
-4.263673888825135
 11
104.8176822494716
 21
-4.129525893121734
  0
LINE
  5
33A
100
AcDbEntity
  8
0
  6
ByLayer
 62
    7
370
   -1
100
AcDbLine
 10
104.8176822494716
 20
-4.129525893121734
 11
105.6373186916857
 21
-3.978718752710207
  0
LINE
  5
33B
100
AcDbEntity
  8
0
  6
ByLayer
 62
    7
370
   -1
100
AcDbLine
 10
105.6373186916857
 20
-3.978718752710207
 11
106.4537915784636
 21
-3.81113179289013
  0
LINE
  5
33C
100
AcDbEntity
  8
0
  6
ByLayer
 62
    7
370
   -1
100
AcDbLine
 10
106.4537915784636
 20
-3.81113179289013
 11
107.2667980941898
 21
-3.626644338961095
  0
LINE
  5
33D
100
AcDbEntity
  8
0
  6
ByLayer
 62
    7
370
   -1
100
AcDbLine
 10
107.2667980941898
 20
-3.626644338961095
 11
108.076035423249
 21
-3.425135716222687
  0
LINE
  5
33E
100
AcDbEntity
  8
0
  6
ByLayer
 62
    7
370
   -1
100
AcDbLine
 10
108.076035423249
 20
-3.425135716222687
 11
108.8812007500255
 21
-3.206485249974488
  0
LINE
  5
33F
100
AcDbEntity
  8
0
  6
ByLayer
 62
    7
370
   -1
100
AcDbLine
 10
108.8812007500255
 20
-3.206485249974488
 11
109.2490598007455
 21
-3.094039692927059
  0
LINE
  5
340
100
AcDbEntity
  8
0
  6
ByLayer
 62
    7
370
   -1
100
AcDbLine
 10
109.2490598007455
 20
-3.094039692927059
 11
109.6140133014672
 21
-2.972112760296391
  0
LINE
  5
341
100
AcDbEntity
  8
0
  6
ByLayer
 62
    7
370
   -1
100
AcDbLine
 10
109.6140133014672
 20
-2.972112760296391
 11
109.9757702911621
 21
-2.840794543720921
  0
LINE
  5
342
100
AcDbEntity
  8
0
  6
ByLayer
 62
    7
370
   -1
100
AcDbLine
 10
109.9757702911621
 20
-2.840794543720921
 11
110.3340398088016
 21
-2.700175134839041
  0
LINE
  5
343
100
AcDbEntity
  8
0
  6
ByLayer
 62
    7
370
   -1
100
AcDbLine
 10
110.3340398088016
 20
-2.700175134839041
 11
110.6885308933574
 21
-2.550344625289176
  0
LINE
  5
344
100
AcDbEntity
  8
0
  6
ByLayer
 62
    7
370
   -1
100
AcDbLine
 10
110.6885308933574
 20
-2.550344625289176
 11
111.0389525838008
 21
-2.391393106709748
  0
LINE
  5
345
100
AcDbEntity
  8
0
  6
ByLayer
 62
    7
370
   -1
100
AcDbLine
 10
111.0389525838008
 20
-2.391393106709748
 11
111.3850139191034
 21
-2.223410670739151
  0
LINE
  5
346
100
AcDbEntity
  8
0
  6
ByLayer
 62
    7
370
   -1
100
AcDbLine
 10
111.3850139191034
 20
-2.223410670739151
 11
111.7264239382367
 21
-2.046487409015813
  0
LINE
  5
347
100
AcDbEntity
  8
0
  6
ByLayer
 62
    7
370
   -1
100
AcDbLine
 10
111.7264239382367
 20
-2.046487409015813
 11
112.0628916801722
 21
-1.860713413178133
  0
LINE
  5
348
100
AcDbEntity
  8
0
  6
ByLayer
 62
    7
370
   -1
100
AcDbLine
 10
112.0628916801722
 20
-1.860713413178133
 11
112.3941261838814
 21
-1.666178774864549
  0
LINE
  5
349
100
AcDbEntity
  8
0
  6
ByLayer
 62
    7
370
   -1
100
AcDbLine
 10
112.3941261838814
 20
-1.666178774864549
 11
112.7198364883357
 21
-1.462973585713465
  0
LINE
  5
34A
100
AcDbEntity
  8
0
  6
ByLayer
 62
    7
370
   -1
100
AcDbLine
 10
112.7198364883357
 20
-1.462973585713465
 11
113.0397316325068
 21
-1.251187937363293
  0
LINE
  5
34B
100
AcDbEntity
  8
0
  6
ByLayer
 62
    7
370
   -1
100
AcDbLine
 10
113.0397316325068
 20
-1.251187937363293
 11
113.3535206553661
 21
-1.03091192145245
  0
LINE
  5
34C
100
AcDbEntity
  8
0
  6
ByLayer
 62
    7
370
   -1
100
AcDbLine
 10
113.3535206553661
 20
-1.03091192145245
 11
113.660912595885
 21
-0.8022356296193461
  0
LINE
  5
34D
100
AcDbEntity
  8
0
  6
ByLayer
 62
    7
370
   -1
100
AcDbLine
 10
113.660912595885
 20
-0.8022356296193461
 11
113.9616164930351
 21
-0.5652491535024005
  0
LINE
  5
34E
100
AcDbEntity
  8
0
  6
ByLayer
 62
    7
370
   -1
100
AcDbLine
 10
113.9616164930351
 20
-0.5652491535024005
 11
114.255341385788
 21
-0.3200425847400309
  0
LINE
  5
34F
100
AcDbEntity
  8
0
  6
ByLayer
 62
    7
370
   -1
100
AcDbLine
 10
114.255341385788
 20
-0.3200425847400309
 11
114.541796313115
 21
-0.06670601497063355
  0
LINE
  5
350
100
AcDbEntity
  8
0
  6
ByLayer
 62
    7
370
   -1
100
AcDbLine
 10
114.541796313115
 20
-0.06670601497063355
 11
114.8206903139878
 21
0.194670464167373
  0
LINE
  5
351
100
AcDbEntity
  8
0
  6
ByLayer
 62
    7
370
   -1
100
AcDbLine
 10
114.8206903139878
 20
0.194670464167373
 11
115.0917324273777
 21
0.4639967610355575
  0
LINE
  5
352
100
AcDbEntity
  8
0
  6
ByLayer
 62
    7
370
   -1
100
AcDbLine
 10
115.0917324273777
 20
0.4639967610355575
 11
115.3546316922564
 21
0.7411827839955013
  0
LINE
  5
353
100
AcDbEntity
  8
0
  6
ByLayer
 62
    7
370
   -1
100
AcDbLine
 10
115.3546316922564
 20
0.7411827839955013
 11
115.6090971475952
 21
1.026138441408815
  0
LINE
  5
354
100
AcDbEntity
  8
0
  6
ByLayer
 62
    7
370
   -1
100
AcDbLine
 10
115.6090971475952
 20
1.026138441408815
 11
115.8548378323658
 21
1.318773641637074
  0
LINE
  5
355
100
AcDbEntity
  8
0
  6
ByLayer
 62
    7
370
   -1
100
AcDbLine
 10
115.8548378323658
 20
1.318773641637074
 11
116.0915627855396
 21
1.618998293041853
  0
LINE
  5
356
100
AcDbEntity
  8
0
  6
ByLayer
 62
    7
370
   -1
100
AcDbLine
 10
116.0915627855396
 20
1.618998293041853
 11
116.3189810460881
 21
1.926722303984755
  0
LINE
  5
357
100
AcDbEntity
  8
0
  6
ByLayer
 62
    7
370
   -1
100
AcDbLine
 10
116.3189810460881
 20
1.926722303984755
 11
116.5368016529828
 21
2.24185558282737
  0
LINE
  5
358
100
AcDbEntity
  8
0
  6
ByLayer
 62
    7
370
   -1
100
AcDbLine
 10
116.5368016529828
 20
2.24185558282737
 11
116.7447336451952
 21
2.564308037931258
  0
LINE
  5
359
100
AcDbEntity
  8
0
  6
ByLayer
 62
    7
370
   -1
100
AcDbLine
 10
116.7447336451952
 20
2.564308037931258
 11
116.9424860616968
 21
2.893989577658015
  0
LINE
  5
35A
100
AcDbEntity
  8
0
  6
ByLayer
 62
    7
370
   -1
100
AcDbLine
 10
116.9424860616968
 20
2.893989577658015
 11
117.1297679414592
 21
3.230810110369238
  0
LINE
  5
35B
100
AcDbEntity
  8
0
  6
ByLayer
 62
    7
370
   -1
100
AcDbLine
 10
117.1297679414592
 20
3.230810110369238
 11
117.3062883234537
 21
3.574679544426502
  0
LINE
  5
35C
100
AcDbEntity
  8
0
  6
ByLayer
 62
    7
370
   -1
100
AcDbLine
 10
117.3062883234537
 20
3.574679544426502
 11
117.471756246652
 21
3.925507788191388
  0
LINE
  5
35D
100
AcDbEntity
  8
0
  6
ByLayer
 62
    7
370
   -1
100
AcDbLine
 10
117.471756246652
 20
3.925507788191388
 11
117.6258807500255
 21
4.283204750025522
  0
LINE
  5
35E
100
AcDbEntity
  8
0
  6
ByLayer
 62
    7
370
   -1
100
AcDbLine
 10
117.6258807500255
 20
4.283204750025522
 11
117.8865761029845
 21
4.82767801644826
  0
LINE
  5
35F
100
AcDbEntity
  8
0
  6
ByLayer
 62
    7
370
   -1
100
AcDbLine
 10
117.8865761029845
 20
4.82767801644826
 11
118.1352185372767
 21
5.376620558826835
  0
LINE
  5
360
100
AcDbEntity
  8
0
  6
ByLayer
 62
    7
370
   -1
100
AcDbLine
 10
118.1352185372767
 20
5.376620558826835
 11
118.3719951966705
 21
5.929848749891239
  0
LINE
  5
361
100
AcDbEntity
  8
0
  6
ByLayer
 62
    7
370
   -1
100
AcDbLine
 10
118.3719951966705
 20
5.929848749891239
 11
118.597093224934
 21
6.487178962371535
  0
LINE
  5
362
100
AcDbEntity
  8
0
  6
ByLayer
 62
    7
370
   -1
100
AcDbLine
 10
118.597093224934
 20
6.487178962371535
 11
118.8106997658357
 21
7.048427568997689
  0
LINE
  5
363
100
AcDbEntity
  8
0
  6
ByLayer
 62
    7
370
   -1
100
AcDbLine
 10
118.8106997658357
 20
7.048427568997689
 11
119.0130019631436
 21
7.613410942499744
  0
LINE
  5
364
100
AcDbEntity
  8
0
  6
ByLayer
 62
    7
370
   -1
100
AcDbLine
 10
119.0130019631436
 20
7.613410942499744
 11
119.204186960626
 21
8.181945455607741
  0
LINE
  5
365
100
AcDbEntity
  8
0
  6
ByLayer
 62
    7
370
   -1
100
AcDbLine
 10
119.204186960626
 20
8.181945455607741
 11
119.3844419020513
 21
8.753847481051659
  0
LINE
  5
366
100
AcDbEntity
  8
0
  6
ByLayer
 62
    7
370
   -1
100
AcDbLine
 10
119.3844419020513
 20
8.753847481051659
 11
119.5539539311876
 21
9.328933391561545
  0
LINE
  5
367
100
AcDbEntity
  8
0
  6
ByLayer
 62
    7
370
   -1
100
AcDbLine
 10
119.5539539311876
 20
9.328933391561545
 11
119.7129101918032
 21
9.907019559867406
  0
LINE
  5
368
100
AcDbEntity
  8
0
  6
ByLayer
 62
    7
370
   -1
100
AcDbLine
 10
119.7129101918032
 20
9.907019559867406
 11
119.8614978276664
 21
10.48792235869928
  0
LINE
  5
369
100
AcDbEntity
  8
0
  6
ByLayer
 62
    7
370
   -1
100
AcDbLine
 10
119.8614978276664
 20
10.48792235869928
 11
119.9999039825454
 21
11.07145816078715
  0
LINE
  5
36A
100
AcDbEntity
  8
0
  6
ByLayer
 62
    7
370
   -1
100
AcDbLine
 10
119.9999039825454
 20
11.07145816078715
 11
120.1283158002085
 21
11.65744333886106
  0
LINE
  5
36B
100
AcDbEntity
  8
0
  6
ByLayer
 62
    7
370
   -1
100
AcDbLine
 10
120.1283158002085
 20
11.65744333886106
 11
120.2469204244238
 21
12.24569426565104
  0
LINE
  5
36C
100
AcDbEntity
  8
0
  6
ByLayer
 62
    7
370
   -1
100
AcDbLine
 10
120.2469204244238
 20
12.24569426565104
 11
120.3559049989598
 21
12.83602731388707
  0
LINE
  5
36D
100
AcDbEntity
  8
0
  6
ByLayer
 62
    7
370
   -1
100
AcDbLine
 10
120.3559049989598
 20
12.83602731388707
 11
120.4554566675845
 21
13.42825885629921
  0
LINE
  5
36E
100
AcDbEntity
  8
0
  6
ByLayer
 62
    7
370
   -1
100
AcDbLine
 10
120.4554566675845
 20
13.42825885629921
 11
120.5457625740663
 21
14.02220526561747
  0
LINE
  5
36F
100
AcDbEntity
  8
0
  6
ByLayer
 62
    7
370
   -1
100
AcDbLine
 10
120.5457625740663
 20
14.02220526561747
 11
120.6270098621735
 21
14.61768291457185
  0
LINE
  5
370
100
AcDbEntity
  8
0
  6
ByLayer
 62
    7
370
   -1
100
AcDbLine
 10
120.6270098621735
 20
14.61768291457185
 11
120.6993856756742
 21
15.21450817589238
  0
LINE
  5
371
100
AcDbEntity
  8
0
  6
ByLayer
 62
    7
370
   -1
100
AcDbLine
 10
120.6993856756742
 20
15.21450817589238
 11
120.7630771583367
 21
15.81249742230908
  0
LINE
  5
372
100
AcDbEntity
  8
0
  6
ByLayer
 62
    7
370
   -1
100
AcDbLine
 10
120.7630771583367
 20
15.81249742230908
 11
120.8182714539294
 21
16.41146702655196
  0
LINE
  5
373
100
AcDbEntity
  8
0
  6
ByLayer
 62
    7
370
   -1
100
AcDbLine
 10
120.8182714539294
 20
16.41146702655196
 11
120.8651557062203
 21
17.01123336135107
  0
LINE
  5
374
100
AcDbEntity
  8
0
  6
ByLayer
 62
    7
370
   -1
100
AcDbLine
 10
120.8651557062203
 20
17.01123336135107
 11
120.9039170589779
 21
17.6116127994364
  0
LINE
  5
375
100
AcDbEntity
  8
0
  6
ByLayer
 62
    7
370
   -1
100
AcDbLine
 10
120.9039170589779
 20
17.6116127994364
 11
120.9347426559703
 21
18.21242171353797
  0
LINE
  5
376
100
AcDbEntity
  8
0
  6
ByLayer
 62
    7
370
   -1
100
AcDbLine
 10
120.9347426559703
 20
18.21242171353797
 11
120.9578196409657
 21
18.81347647638582
  0
LINE
  5
377
100
AcDbEntity
  8
0
  6
ByLayer
 62
    7
370
   -1
100
AcDbLine
 10
120.9578196409657
 20
18.81347647638582
 11
120.9733351577325
 21
19.41459346070993
  0
LINE
  5
378
100
AcDbEntity
  8
0
  6
ByLayer
 62
    7
370
   -1
100
AcDbLine
 10
120.9733351577325
 20
19.41459346070993
 11
120.9814763500389
 21
20.01558903924036
  0
LINE
  5
379
100
AcDbEntity
  8
0
  6
ByLayer
 62
    7
370
   -1
100
AcDbLine
 10
120.9814763500389
 20
20.01558903924036
 11
120.9824303616532
 21
20.61627958470712
  0
LINE
  5
37A
100
AcDbEntity
  8
0
  6
ByLayer
 62
    7
370
   -1
100
AcDbLine
 10
120.9824303616532
 20
20.61627958470712
 11
120.9763843363435
 21
21.21648146984021
  0
LINE
  5
37B
100
AcDbEntity
  8
0
  6
ByLayer
 62
    7
370
   -1
100
AcDbLine
 10
120.9763843363435
 20
21.21648146984021
 11
120.9635254178782
 21
21.81601106736966
  0
LINE
  5
37C
100
AcDbEntity
  8
0
  6
ByLayer
 62
    7
370
   -1
100
AcDbLine
 10
120.9635254178782
 20
21.81601106736966
 11
120.9440407500255
 21
22.41468475002551
  0
LINE
  5
37D
100
AcDbEntity
  8
0
  6
ByLayer
 62
    7
370
   -1
100
AcDbLine
 10
120.9440407500255
 20
22.41468475002551
 11
120.9440407500255
 21
22.41468475002551
  0
LINE
  5
37E
100
AcDbEntity
  8
0
  6
ByLayer
 62
    7
370
   -1
100
AcDbLine
 10
124.8984349298156
 20
23.5009675225383
 11
124.8873177063756
 21
23.95043809729242
  0
LINE
  5
37F
100
AcDbEntity
  8
0
  6
ByLayer
 62
    7
370
   -1
100
AcDbLine
 10
124.8873177063756
 20
23.95043809729242
 11
124.8598289445852
 21
24.39946927561809
  0
LINE
  5
380
100
AcDbEntity
  8
0
  6
ByLayer
 62
    7
370
   -1
100
AcDbLine
 10
124.8598289445852
 20
24.39946927561809
 11
124.8161491362706
 21
24.84746169022317
  0
LINE
  5
381
100
AcDbEntity
  8
0
  6
ByLayer
 62
    7
370
   -1
100
AcDbLine
 10
124.8161491362706
 20
24.84746169022317
 11
124.7564587732582
 21
25.29381597381553
  0
LINE
  5
382
100
AcDbEntity
  8
0
  6
ByLayer
 62
    7
370
   -1
100
AcDbLine
 10
124.7564587732582
 20
25.29381597381553
 11
124.6809383473746
 21
25.73793275910303
  0
LINE
  5
383
100
AcDbEntity
  8
0
  6
ByLayer
 62
    7
370
   -1
100
AcDbLine
 10
124.6809383473746
 20
25.73793275910303
 11
124.589768350446
 21
26.17921267879354
  0
LINE
  5
384
100
AcDbEntity
  8
0
  6
ByLayer
 62
    7
370
   -1
100
AcDbLine
 10
124.589768350446
 20
26.17921267879354
 11
124.4831292742988
 21
26.61705636559492
  0
LINE
  5
385
100
AcDbEntity
  8
0
  6
ByLayer
 62
    7
370
   -1
100
AcDbLine
 10
124.4831292742988
 20
26.61705636559492
 11
124.3612016107595
 21
27.05086445221504
  0
LINE
  5
386
100
AcDbEntity
  8
0
  6
ByLayer
 62
    7
370
   -1
100
AcDbLine
 10
124.3612016107595
 20
27.05086445221504
 11
124.2241658516544
 21
27.48003757136176
  0
LINE
  5
387
100
AcDbEntity
  8
0
  6
ByLayer
 62
    7
370
   -1
100
AcDbLine
 10
124.2241658516544
 20
27.48003757136176
 11
124.0722024888099
 21
27.90397635574295
  0
LINE
  5
388
100
AcDbEntity
  8
0
  6
ByLayer
 62
    7
370
   -1
100
AcDbLine
 10
124.0722024888099
 20
27.90397635574295
 11
123.9054920140525
 21
28.32208143806647
  0
LINE
  5
389
100
AcDbEntity
  8
0
  6
ByLayer
 62
    7
370
   -1
100
AcDbLine
 10
123.9054920140525
 20
28.32208143806647
 11
123.7242149192084
 21
28.73375345104019
  0
LINE
  5
38A
100
AcDbEntity
  8
0
  6
ByLayer
 62
    7
370
   -1
100
AcDbLine
 10
123.7242149192084
 20
28.73375345104019
 11
123.5285516961041
 21
29.13839302737196
  0
LINE
  5
38B
100
AcDbEntity
  8
0
  6
ByLayer
 62
    7
370
   -1
100
AcDbLine
 10
123.5285516961041
 20
29.13839302737196
 11
123.318682836566
 21
29.53540079976967
  0
LINE
  5
38C
100
AcDbEntity
  8
0
  6
ByLayer
 62
    7
370
   -1
100
AcDbLine
 10
123.318682836566
 20
29.53540079976967
 11
123.0947888324204
 21
29.92417740094116
  0
LINE
  5
38D
100
AcDbEntity
  8
0
  6
ByLayer
 62
    7
370
   -1
100
AcDbLine
 10
123.0947888324204
 20
29.92417740094116
 11
122.8570501754938
 21
30.30412346359431
  0
LINE
  5
38E
100
AcDbEntity
  8
0
  6
ByLayer
 62
    7
370
   -1
100
AcDbLine
 10
122.8570501754938
 20
30.30412346359431
 11
122.6056473576126
 21
30.67463962043698
  0
LINE
  5
38F
100
AcDbEntity
  8
0
  6
ByLayer
 62
    7
370
   -1
100
AcDbLine
 10
122.6056473576126
 20
30.67463962043698
 11
122.3407608706031
 21
31.03512650417704
  0
LINE
  5
390
100
AcDbEntity
  8
0
  6
ByLayer
 62
    7
370
   -1
100
AcDbLine
 10
122.3407608706031
 20
31.03512650417704
 11
122.0625712062917
 21
31.38498474752235
  0
LINE
  5
391
100
AcDbEntity
  8
0
  6
ByLayer
 62
    7
370
   -1
100
AcDbLine
 10
122.0625712062917
 20
31.38498474752235
 11
121.7712588565049
 21
31.72361498318076
  0
LINE
  5
392
100
AcDbEntity
  8
0
  6
ByLayer
 62
    7
370
   -1
100
AcDbLine
 10
121.7712588565049
 20
31.72361498318076
 11
121.4670043130689
 21
32.05041784386016
  0
LINE
  5
393
100
AcDbEntity
  8
0
  6
ByLayer
 62
    7
370
   -1
100
AcDbLine
 10
121.4670043130689
 20
32.05041784386016
 11
121.1499880678103
 21
32.36479396226841
  0
LINE
  5
394
100
AcDbEntity
  8
0
  6
ByLayer
 62
    7
370
   -1
100
AcDbLine
 10
121.1499880678103
 20
32.36479396226841
 11
120.8203906125554
 21
32.66614397111336
  0
LINE
  5
395
100
AcDbEntity
  8
0
  6
ByLayer
 62
    7
370
   -1
100
AcDbLine
 10
120.8203906125554
 20
32.66614397111336
 11
120.4783924391305
 21
32.95386850310288
  0
LINE
  5
396
100
AcDbEntity
  8
0
  6
ByLayer
 62
    7
370
   -1
100
AcDbLine
 10
120.4783924391305
 20
32.95386850310288
 11
120.1241740393621
 21
33.22736819094486
  0
LINE
  5
397
100
AcDbEntity
  8
0
  6
ByLayer
 62
    7
370
   -1
100
AcDbLine
 10
120.1241740393621
 20
33.22736819094486
 11
119.7579159050766
 21
33.48604366734712
  0
LINE
  5
398
100
AcDbEntity
  8
0
  6
ByLayer
 62
    7
370
   -1
100
AcDbLine
 10
119.7579159050766
 20
33.48604366734712
 11
119.3797985281003
 21
33.72929556501756
  0
LINE
  5
399
100
AcDbEntity
  8
0
  6
ByLayer
 62
    7
370
   -1
100
AcDbLine
 10
119.3797985281003
 20
33.72929556501756
 11
118.9900024002597
 21
33.95652451666403
  0
LINE
  5
39A
100
AcDbEntity
  8
0
  6
ByLayer
 62
    7
370
   -1
100
AcDbLine
 10
118.9900024002597
 20
33.95652451666403
 11
118.5887080133811
 21
34.16713115499439
  0
LINE
  5
39B
100
AcDbEntity
  8
0
  6
ByLayer
 62
    7
370
   -1
100
AcDbLine
 10
118.5887080133811
 20
34.16713115499439
 11
118.176095859291
 21
34.36051611271653
  0
LINE
  5
39C
100
AcDbEntity
  8
0
  6
ByLayer
 62
    7
370
   -1
100
AcDbLine
 10
118.176095859291
 20
34.36051611271653
 11
117.7523464298156
 21
34.53608002253829
  0
LINE
  5
39D
100
AcDbEntity
  8
0
  6
ByLayer
 62
    7
370
   -1
100
AcDbLine
 10
117.7523464298156
 20
34.53608002253829
 11
117.2863039937443
 21
34.72699922832192
  0
LINE
  5
39E
100
AcDbEntity
  8
0
  6
ByLayer
 62
    7
370
   -1
100
AcDbLine
 10
117.2863039937443
 20
34.72699922832192
 11
116.8176950962921
 21
34.91062999034737
  0
LINE
  5
39F
100
AcDbEntity
  8
0
  6
ByLayer
 62
    7
370
   -1
100
AcDbLine
 10
116.8176950962921
 20
34.91062999034737
 11
116.3466223052142
 21
35.08715891272325
  0
LINE
  5
3A0
100
AcDbEntity
  8
0
  6
ByLayer
 62
    7
370
   -1
100
AcDbLine
 10
116.3466223052142
 20
35.08715891272325
 11
115.8731881882661
 21
35.2567725995582
  0
LINE
  5
3A1
100
AcDbEntity
  8
0
  6
ByLayer
 62
    7
370
   -1
100
AcDbLine
 10
115.8731881882661
 20
35.2567725995582
 11
115.3974953132032
 21
35.41965765496083
  0
LINE
  5
3A2
100
AcDbEntity
  8
0
  6
ByLayer
 62
    7
370
   -1
100
AcDbLine
 10
115.3974953132032
 20
35.41965765496083
 11
114.9196462477808
 21
35.57600068303979
  0
LINE
  5
3A3
100
AcDbEntity
  8
0
  6
ByLayer
 62
    7
370
   -1
100
AcDbLine
 10
114.9196462477808
 20
35.57600068303979
 11
114.4397435597542
 21
35.72598828790367
  0
LINE
  5
3A4
100
AcDbEntity
  8
0
  6
ByLayer
 62
    7
370
   -1
100
AcDbLine
 10
114.4397435597542
 20
35.72598828790367
 11
113.9578898168788
 21
35.86980707366111
  0
LINE
  5
3A5
100
AcDbEntity
  8
0
  6
ByLayer
 62
    7
370
   -1
100
AcDbLine
 10
113.9578898168788
 20
35.86980707366111
 11
113.47418758691
 21
36.00764364442073
  0
LINE
  5
3A6
100
AcDbEntity
  8
0
  6
ByLayer
 62
    7
370
   -1
100
AcDbLine
 10
113.47418758691
 20
36.00764364442073
 11
112.9887394376032
 21
36.13968460429116
  0
LINE
  5
3A7
100
AcDbEntity
  8
0
  6
ByLayer
 62
    7
370
   -1
100
AcDbLine
 10
112.9887394376032
 20
36.13968460429116
 11
112.5016479367137
 21
36.26611655738103
  0
LINE
  5
3A8
100
AcDbEntity
  8
0
  6
ByLayer
 62
    7
370
   -1
100
AcDbLine
 10
112.5016479367137
 20
36.26611655738103
 11
112.0130156519968
 21
36.38712610779894
  0
LINE
  5
3A9
100
AcDbEntity
  8
0
  6
ByLayer
 62
    7
370
   -1
100
AcDbLine
 10
112.0130156519968
 20
36.38712610779894
 11
111.522945151208
 21
36.50289985965352
  0
LINE
  5
3AA
100
AcDbEntity
  8
0
  6
ByLayer
 62
    7
370
   -1
100
AcDbLine
 10
111.522945151208
 20
36.50289985965352
 11
111.0315390021025
 21
36.61362441705342
  0
LINE
  5
3AB
100
AcDbEntity
  8
0
  6
ByLayer
 62
    7
370
   -1
100
AcDbLine
 10
111.0315390021025
 20
36.61362441705342
 11
110.5388997724359
 21
36.71948638410722
  0
LINE
  5
3AC
100
AcDbEntity
  8
0
  6
ByLayer
 62
    7
370
   -1
100
AcDbLine
 10
110.5388997724359
 20
36.71948638410722
 11
110.0451300299633
 21
36.82067236492357
  0
LINE
  5
3AD
100
AcDbEntity
  8
0
  6
ByLayer
 62
    7
370
   -1
100
AcDbLine
 10
110.0451300299633
 20
36.82067236492357
 11
109.5503323424402
 21
36.9173689636111
  0
LINE
  5
3AE
100
AcDbEntity
  8
0
  6
ByLayer
 62
    7
370
   -1
100
AcDbLine
 10
109.5503323424402
 20
36.9173689636111
 11
109.054609277622
 21
37.00976278427841
  0
LINE
  5
3AF
100
AcDbEntity
  8
0
  6
ByLayer
 62
    7
370
   -1
100
AcDbLine
 10
109.054609277622
 20
37.00976278427841
 11
108.558063403264
 21
37.09804043103414
  0
LINE
  5
3B0
100
AcDbEntity
  8
0
  6
ByLayer
 62
    7
370
   -1
100
AcDbLine
 10
108.558063403264
 20
37.09804043103414
 11
108.0607972871215
 21
37.18238850798691
  0
LINE
  5
3B1
100
AcDbEntity
  8
0
  6
ByLayer
 62
    7
370
   -1
100
AcDbLine
 10
108.0607972871215
 20
37.18238850798691
 11
107.56291349695
 21
37.26299361924535
  0
LINE
  5
3B2
100
AcDbEntity
  8
0
  6
ByLayer
 62
    7
370
   -1
100
AcDbLine
 10
107.56291349695
 20
37.26299361924535
 11
107.0645146005047
 21
37.34004236891807
  0
LINE
  5
3B3
100
AcDbEntity
  8
0
  6
ByLayer
 62
    7
370
   -1
100
AcDbLine
 10
107.0645146005047
 20
37.34004236891807
 11
106.5657031655412
 21
37.4137213611137
  0
LINE
  5
3B4
100
AcDbEntity
  8
0
  6
ByLayer
 62
    7
370
   -1
100
AcDbLine
 10
106.5657031655412
 20
37.4137213611137
 11
106.0665817598146
 21
37.48421719994086
  0
LINE
  5
3B5
100
AcDbEntity
  8
0
  6
ByLayer
 62
    7
370
   -1
100
AcDbLine
 10
106.0665817598146
 20
37.48421719994086
 11
105.5672529510804
 21
37.55171648950818
  0
LINE
  5
3B6
100
AcDbEntity
  8
0
  6
ByLayer
 62
    7
370
   -1
100
AcDbLine
 10
105.5672529510804
 20
37.55171648950818
 11
105.067819307094
 21
37.61640583392428
  0
LINE
  5
3B7
100
AcDbEntity
  8
0
  6
ByLayer
 62
    7
370
   -1
100
AcDbLine
 10
105.067819307094
 20
37.61640583392428
 11
104.5683833956107
 21
37.67847183729778
  0
LINE
  5
3B8
100
AcDbEntity
  8
0
  6
ByLayer
 62
    7
370
   -1
100
AcDbLine
 10
104.5683833956107
 20
37.67847183729778
 11
104.0690477843858
 21
37.73810110373731
  0
LINE
  5
3B9
100
AcDbEntity
  8
0
  6
ByLayer
 62
    7
370
   -1
100
AcDbLine
 10
104.0690477843858
 20
37.73810110373731
 11
103.5699150411747
 21
37.79548023735148
  0
LINE
  5
3BA
100
AcDbEntity
  8
0
  6
ByLayer
 62
    7
370
   -1
100
AcDbLine
 10
103.5699150411747
 20
37.79548023735148
 11
103.0710877337329
 21
37.85079584224894
  0
LINE
  5
3BB
100
AcDbEntity
  8
0
  6
ByLayer
 62
    7
370
   -1
100
AcDbLine
 10
103.0710877337329
 20
37.85079584224894
 11
102.5726684298156
 21
37.90423452253829
  0
LINE
  5
3BC
100
AcDbEntity
  8
0
  6
ByLayer
 62
    7
370
   -1
100
AcDbLine
 10
69.0248109298156
 20
6.807556022538293
 11
69.26321151440492
 21
6.281187650714597
  0
LINE
  5
3BD
100
AcDbEntity
  8
0
  6
ByLayer
 62
    7
370
   -1
100
AcDbLine
 10
69.26321151440492
 20
6.281187650714597
 11
69.51323875533336
 21
5.757568765950725
  0
LINE
  5
3BE
100
AcDbEntity
  8
0
  6
ByLayer
 62
    7
370
   -1
100
AcDbLine
 10
69.51323875533336
 20
5.757568765950725
 11
69.77486778656764
 21
5.237370311081816
  0
LINE
  5
3BF
100
AcDbEntity
  8
0
  6
ByLayer
 62
    7
370
   -1
100
AcDbLine
 10
69.77486778656764
 20
5.237370311081816
 11
70.04807374207435
 21
4.721263228942914
  0
LINE
  5
3C0
100
AcDbEntity
  8
0
  6
ByLayer
 62
    7
370
   -1
100
AcDbLine
 10
70.04807374207435
 20
4.721263228942914
 11
70.33283175582011
 21
4.20991846236912
  0
LINE
  5
3C1
100
AcDbEntity
  8
0
  6
ByLayer
 62
    7
370
   -1
100
AcDbLine
 10
70.33283175582011
 20
4.20991846236912
 11
70.62911696177156
 21
3.7040069541955
  0
LINE
  5
3C2
100
AcDbEntity
  8
0
  6
ByLayer
 62
    7
370
   -1
100
AcDbLine
 10
70.62911696177156
 20
3.7040069541955
 11
70.93690449389536
 21
3.204199647257171
  0
LINE
  5
3C3
100
AcDbEntity
  8
0
  6
ByLayer
 62
    7
370
   -1
100
AcDbLine
 10
70.93690449389536
 20
3.204199647257171
 11
71.25616948615811
 21
2.711167484389191
  0
LINE
  5
3C4
100
AcDbEntity
  8
0
  6
ByLayer
 62
    7
370
   -1
100
AcDbLine
 10
71.25616948615811
 20
2.711167484389191
 11
71.58688707252651
 21
2.225581408426656
  0
LINE
  5
3C5
100
AcDbEntity
  8
0
  6
ByLayer
 62
    7
370
   -1
100
AcDbLine
 10
71.58688707252651
 20
2.225581408426656
 11
71.92903238696709
 21
1.74811236220463
  0
LINE
  5
3C6
100
AcDbEntity
  8
0
  6
ByLayer
 62
    7
370
   -1
100
AcDbLine
 10
71.92903238696709
 20
1.74811236220463
 11
72.28258056344657
 21
1.279431288558237
  0
LINE
  5
3C7
100
AcDbEntity
  8
0
  6
ByLayer
 62
    7
370
   -1
100
AcDbLine
 10
72.28258056344657
 20
1.279431288558237
 11
72.64750673593154
 21
0.8202091303225235
  0
LINE
  5
3C8
100
AcDbEntity
  8
0
  6
ByLayer
 62
    7
370
   -1
100
AcDbLine
 10
72.64750673593154
 20
0.8202091303225235
 11
73.02378603838866
 21
0.3711168303326031
  0
LINE
  5
3C9
100
AcDbEntity
  8
0
  6
ByLayer
 62
    7
370
   -1
100
AcDbLine
 10
73.02378603838866
 20
0.3711168303326031
 11
73.41139360478456
 21
-0.06717466857647769
  0
LINE
  5
3CA
100
AcDbEntity
  8
0
  6
ByLayer
 62
    7
370
   -1
100
AcDbLine
 10
73.41139360478456
 20
-0.06717466857647769
 11
73.81030456908584
 21
-0.4939944235695898
  0
LINE
  5
3CB
100
AcDbEntity
  8
0
  6
ByLayer
 62
    7
370
   -1
100
AcDbLine
 10
73.81030456908584
 20
-0.4939944235695898
 11
74.2204940652592
 21
-0.9086714918116739
  0
LINE
  5
3CC
100
AcDbEntity
  8
0
  6
ByLayer
 62
    7
370
   -1
100
AcDbLine
 10
74.2204940652592
 20
-0.9086714918116739
 11
74.64193722727121
 21
-1.310534930467642
  0
LINE
  5
3CD
100
AcDbEntity
  8
0
  6
ByLayer
 62
    7
370
   -1
100
AcDbLine
 10
74.64193722727121
 20
-1.310534930467642
 11
75.07460918908853
 21
-1.698913796702407
  0
LINE
  5
3CE
100
AcDbEntity
  8
0
  6
ByLayer
 62
    7
370
   -1
100
AcDbLine
 10
75.07460918908853
 20
-1.698913796702407
 11
75.51848508467781
 21
-2.073137147680903
  0
LINE
  5
3CF
100
AcDbEntity
  8
0
  6
ByLayer
 62
    7
370
   -1
100
AcDbLine
 10
75.51848508467781
 20
-2.073137147680903
 11
75.97354004800566
 21
-2.432534040568007
  0
LINE
  5
3D0
100
AcDbEntity
  8
0
  6
ByLayer
 62
    7
370
   -1
100
AcDbLine
 10
75.97354004800566
 20
-2.432534040568007
 11
76.43974921303871
 21
-2.776433532528666
  0
LINE
  5
3D1
100
AcDbEntity
  8
0
  6
ByLayer
 62
    7
370
   -1
100
AcDbLine
 10
76.43974921303871
 20
-2.776433532528666
 11
76.91708771374363
 21
-3.104164680727787
  0
LINE
  5
3D2
100
AcDbEntity
  8
0
  6
ByLayer
 62
    7
370
   -1
100
AcDbLine
 10
76.91708771374363
 20
-3.104164680727787
 11
77.40553068408701
 21
-3.415056542330289
  0
LINE
  5
3D3
100
AcDbEntity
  8
0
  6
ByLayer
 62
    7
370
   -1
100
AcDbLine
 10
77.40553068408701
 20
-3.415056542330289
 11
77.90505325803554
 21
-3.708438174501083
  0
LINE
  5
3D4
100
AcDbEntity
  8
0
  6
ByLayer
 62
    7
370
   -1
100
AcDbLine
 10
77.90505325803554
 20
-3.708438174501083
 11
78.41563056955579
 21
-3.983638634405056
  0
LINE
  5
3D5
100
AcDbEntity
  8
0
  6
ByLayer
 62
    7
370
   -1
100
AcDbLine
 10
78.41563056955579
 20
-3.983638634405056
 11
78.93723775261442
 21
-4.239986979207175
  0
LINE
  5
3D6
100
AcDbEntity
  8
0
  6
ByLayer
 62
    7
370
   -1
100
AcDbLine
 10
78.93723775261442
 20
-4.239986979207175
 11
79.46984994117808
 21
-4.476812266072338
  0
LINE
  5
3D7
100
AcDbEntity
  8
0
  6
ByLayer
 62
    7
370
   -1
100
AcDbLine
 10
79.46984994117808
 20
-4.476812266072338
 11
80.0134422692134
 21
-4.69344355216546
  0
LINE
  5
3D8
100
AcDbEntity
  8
0
  6
ByLayer
 62
    7
370
   -1
100
AcDbLine
 10
80.0134422692134
 20
-4.69344355216546
 11
80.567989870687
 21
-4.889209894651438
  0
LINE
  5
3D9
100
AcDbEntity
  8
0
  6
ByLayer
 62
    7
370
   -1
100
AcDbLine
 10
80.567989870687
 20
-4.889209894651438
 11
81.13346787956552
 21
-5.063440350695241
  0
LINE
  5
3DA
100
AcDbEntity
  8
0
  6
ByLayer
 62
    7
370
   -1
100
AcDbLine
 10
81.13346787956552
 20
-5.063440350695241
 11
81.7098514298156
 21
-5.215463977461722
  0
LINE
  5
3DB
100
AcDbEntity
  8
0
  6
ByLayer
 62
    7
370
   -1
100
AcDbLine
 10
81.7098514298156
 20
-5.215463977461722
 11
82.62479212272621
 21
-5.495042023482332
  0
LINE
  5
3DC
100
AcDbEntity
  8
0
  6
ByLayer
 62
    7
370
   -1
100
AcDbLine
 10
82.62479212272621
 20
-5.495042023482332
 11
83.54514891378726
 21
-5.758931450725462
  0
LINE
  5
3DD
100
AcDbEntity
  8
0
  6
ByLayer
 62
    7
370
   -1
100
AcDbLine
 10
83.54514891378726
 20
-5.758931450725462
 11
84.47057356504101
 21
-6.006993483285606
  0
LINE
  5
3DE
100
AcDbEntity
  8
0
  6
ByLayer
 62
    7
370
   -1
100
AcDbLine
 10
84.47057356504101
 20
-6.006993483285606
 11
85.40071783852964
 21
-6.239089345257355
  0
LINE
  5
3DF
100
AcDbEntity
  8
0
  6
ByLayer
 62
    7
370
   -1
100
AcDbLine
 10
85.40071783852964
 20
-6.239089345257355
 11
86.33523349629542
 21
-6.455080260735176
  0
LINE
  5
3E0
100
AcDbEntity
  8
0
  6
ByLayer
 62
    7
370
   -1
100
AcDbLine
 10
86.33523349629542
 20
-6.455080260735176
 11
87.27377230038053
 21
-6.654827453813617
  0
LINE
  5
3E1
100
AcDbEntity
  8
0
  6
ByLayer
 62
    7
370
   -1
100
AcDbLine
 10
87.27377230038053
 20
-6.654827453813617
 11
88.21598601282724
 21
-6.838192148587217
  0
LINE
  5
3E2
100
AcDbEntity
  8
0
  6
ByLayer
 62
    7
370
   -1
100
AcDbLine
 10
88.21598601282724
 20
-6.838192148587217
 11
89.16152639567777
 21
-7.005035569150466
  0
LINE
  5
3E3
100
AcDbEntity
  8
0
  6
ByLayer
 62
    7
370
   -1
100
AcDbLine
 10
89.16152639567777
 20
-7.005035569150466
 11
90.11004521097433
 21
-7.155218939597918
  0
LINE
  5
3E4
100
AcDbEntity
  8
0
  6
ByLayer
 62
    7
370
   -1
100
AcDbLine
 10
90.11004521097433
 20
-7.155218939597918
 11
91.06119422075918
 21
-7.288603484024093
  0
LINE
  5
3E5
100
AcDbEntity
  8
0
  6
ByLayer
 62
    7
370
   -1
100
AcDbLine
 10
91.06119422075918
 20
-7.288603484024093
 11
92.0146251870745
 21
-7.405050426523495
  0
LINE
  5
3E6
100
AcDbEntity
  8
0
  6
ByLayer
 62
    7
370
   -1
100
AcDbLine
 10
92.0146251870745
 20
-7.405050426523495
 11
92.96998987196255
 21
-7.504420991190679
  0
LINE
  5
3E7
100
AcDbEntity
  8
0
  6
ByLayer
 62
    7
370
   -1
100
AcDbLine
 10
92.96998987196255
 20
-7.504420991190679
 11
93.92694003746556
 21
-7.586576402120165
  0
LINE
  5
3E8
100
AcDbEntity
  8
0
  6
ByLayer
 62
    7
370
   -1
100
AcDbLine
 10
93.92694003746556
 20
-7.586576402120165
 11
94.88512744562573
 21
-7.651377883406448
  0
LINE
  5
3E9
100
AcDbEntity
  8
0
  6
ByLayer
 62
    7
370
   -1
100
AcDbLine
 10
94.88512744562573
 20
-7.651377883406448
 11
95.84420385848533
 21
-7.698686659144089
  0
LINE
  5
3EA
100
AcDbEntity
  8
0
  6
ByLayer
 62
    7
370
   -1
100
AcDbLine
 10
95.84420385848533
 20
-7.698686659144089
 11
96.80382103808655
 21
-7.728363953427598
  0
LINE
  5
3EB
100
AcDbEntity
  8
0
  6
ByLayer
 62
    7
370
   -1
100
AcDbLine
 10
96.80382103808655
 20
-7.728363953427598
 11
97.76363074647163
 21
-7.740270990351511
  0
LINE
  5
3EC
100
AcDbEntity
  8
0
  6
ByLayer
 62
    7
370
   -1
100
AcDbLine
 10
97.76363074647163
 20
-7.740270990351511
 11
98.7232847456828
 21
-7.734268994010336
  0
LINE
  5
3ED
100
AcDbEntity
  8
0
  6
ByLayer
 62
    7
370
   -1
100
AcDbLine
 10
98.7232847456828
 20
-7.734268994010336
 11
99.68243479776228
 21
-7.710219188498593
  0
LINE
  5
3EE
100
AcDbEntity
  8
0
  6
ByLayer
 62
    7
370
   -1
100
AcDbLine
 10
99.68243479776228
 20
-7.710219188498593
 11
100.6407326647523
 21
-7.667982797910835
  0
LINE
  5
3EF
100
AcDbEntity
  8
0
  6
ByLayer
 62
    7
370
   -1
100
AcDbLine
 10
100.6407326647523
 20
-7.667982797910835
 11
101.5978301086951
 21
-7.607421046341565
  0
LINE
  5
3F0
100
AcDbEntity
  8
0
  6
ByLayer
 62
    7
370
   -1
100
AcDbLine
 10
101.5978301086951
 20
-7.607421046341565
 11
102.5533788916329
 21
-7.528395157885322
  0
LINE
  5
3F1
100
AcDbEntity
  8
0
  6
ByLayer
 62
    7
370
   -1
100
AcDbLine
 10
102.5533788916329
 20
-7.528395157885322
 11
103.5070307756079
 21
-7.43076635663663
  0
LINE
  5
3F2
100
AcDbEntity
  8
0
  6
ByLayer
 62
    7
370
   -1
100
AcDbLine
 10
103.5070307756079
 20
-7.43076635663663
 11
104.4584375226624
 21
-7.314395866689993
  0
LINE
  5
3F3
100
AcDbEntity
  8
0
  6
ByLayer
 62
    7
370
   -1
100
AcDbLine
 10
104.4584375226624
 20
-7.314395866689993
 11
105.4072508948386
 21
-7.179144912139963
  0
LINE
  5
3F4
100
AcDbEntity
  8
0
  6
ByLayer
 62
    7
370
   -1
100
AcDbLine
 10
105.4072508948386
 20
-7.179144912139963
 11
106.3531226541786
 21
-7.02487471708106
  0
LINE
  5
3F5
100
AcDbEntity
  8
0
  6
ByLayer
 62
    7
370
   -1
100
AcDbLine
 10
106.3531226541786
 20
-7.02487471708106
 11
107.2957045627249
 21
-6.851446505607793
  0
LINE
  5
3F6
100
AcDbEntity
  8
0
  6
ByLayer
 62
    7
370
   -1
100
AcDbLine
 10
107.2957045627249
 20
-6.851446505607793
 11
108.2346483825194
 21
-6.658721501814698
  0
LINE
  5
3F7
100
AcDbEntity
  8
0
  6
ByLayer
 62
    7
370
   -1
100
AcDbLine
 10
108.2346483825194
 20
-6.658721501814698
 11
109.1696058756046
 21
-6.446560929796311
  0
LINE
  5
3F8
100
AcDbEntity
  8
0
  6
ByLayer
 62
    7
370
   -1
100
AcDbLine
 10
109.1696058756046
 20
-6.446560929796311
 11
110.1002288040226
 21
-6.214826013647139
  0
LINE
  5
3F9
100
AcDbEntity
  8
0
  6
ByLayer
 62
    7
370
   -1
100
AcDbLine
 10
110.1002288040226
 20
-6.214826013647139
 11
111.0261689298156
 21
-5.963377977461709
  0
LINE
  5
3FA
100
AcDbEntity
  8
0
  6
ByLayer
 62
    7
370
   -1
100
AcDbLine
 10
111.0261689298156
 20
-5.963377977461709
 11
111.4492068381436
 21
-5.834065586857174
  0
LINE
  5
3FB
100
AcDbEntity
  8
0
  6
ByLayer
 62
    7
370
   -1
100
AcDbLine
 10
111.4492068381436
 20
-5.834065586857174
 11
111.8689033639736
 21
-5.693849614331912
  0
LINE
  5
3FC
100
AcDbEntity
  8
0
  6
ByLayer
 62
    7
370
   -1
100
AcDbLine
 10
111.8689033639736
 20
-5.693849614331912
 11
112.2849239021227
 21
-5.542833665270121
  0
LINE
  5
3FD
100
AcDbEntity
  8
0
  6
ByLayer
 62
    7
370
   -1
100
AcDbLine
 10
112.2849239021227
 20
-5.542833665270121
 11
112.6969338474082
 21
-5.381121345055965
  0
LINE
  5
3FE
100
AcDbEntity
  8
0
  6
ByLayer
 62
    7
370
   -1
100
AcDbLine
 10
112.6969338474082
 20
-5.381121345055965
 11
113.1045985946473
 21
-5.208816259073621
  0
LINE
  5
3FF
100
AcDbEntity
  8
0
  6
ByLayer
 62
    7
370
   -1
100
AcDbLine
 10
113.1045985946473
 20
-5.208816259073621
 11
113.5075835386572
 21
-5.026022012707259
  0
LINE
  5
400
100
AcDbEntity
  8
0
  6
ByLayer
 62
    7
370
   -1
100
AcDbLine
 10
113.5075835386572
 20
-5.026022012707259
 11
113.9055540742552
 21
-4.832842211341047
  0
LINE
  5
401
100
AcDbEntity
  8
0
  6
ByLayer
 62
    7
370
   -1
100
AcDbLine
 10
113.9055540742552
 20
-4.832842211341047
 11
114.2981755962585
 21
-4.629380460359212
  0
LINE
  5
402
100
AcDbEntity
  8
0
  6
ByLayer
 62
    7
370
   -1
100
AcDbLine
 10
114.2981755962585
 20
-4.629380460359212
 11
114.6851134994843
 21
-4.415740365145889
  0
LINE
  5
403
100
AcDbEntity
  8
0
  6
ByLayer
 62
    7
370
   -1
100
AcDbLine
 10
114.6851134994843
 20
-4.415740365145889
 11
115.0660331787498
 21
-4.192025531085267
  0
LINE
  5
404
100
AcDbEntity
  8
0
  6
ByLayer
 62
    7
370
   -1
100
AcDbLine
 10
115.0660331787498
 20
-4.192025531085267
 11
115.4406000288724
 21
-3.95833956356152
  0
LINE
  5
405
100
AcDbEntity
  8
0
  6
ByLayer
 62
    7
370
   -1
100
AcDbLine
 10
115.4406000288724
 20
-3.95833956356152
 11
115.8084794446691
 21
-3.714786067958838
  0
LINE
  5
406
100
AcDbEntity
  8
0
  6
ByLayer
 62
    7
370
   -1
100
AcDbLine
 10
115.8084794446691
 20
-3.714786067958838
 11
116.1693368209572
 21
-3.46146864966137
  0
LINE
  5
407
100
AcDbEntity
  8
0
  6
ByLayer
 62
    7
370
   -1
100
AcDbLine
 10
116.1693368209572
 20
-3.46146864966137
 11
116.522837552554
 21
-3.198490914053289
  0
LINE
  5
408
100
AcDbEntity
  8
0
  6
ByLayer
 62
    7
370
   -1
100
AcDbLine
 10
116.522837552554
 20
-3.198490914053289
 11
116.8686470342767
 21
-2.925956466518799
  0
LINE
  5
409
100
AcDbEntity
  8
0
  6
ByLayer
 62
    7
370
   -1
100
AcDbLine
 10
116.8686470342767
 20
-2.925956466518799
 11
117.2064306609424
 21
-2.64396891244207
  0
LINE
  5
40A
100
AcDbEntity
  8
0
  6
ByLayer
 62
    7
370
   -1
100
AcDbLine
 10
117.2064306609424
 20
-2.64396891244207
 11
117.5358538273686
 21
-2.352631857207275
  0
LINE
  5
40B
100
AcDbEntity
  8
0
  6
ByLayer
 62
    7
370
   -1
100
AcDbLine
 10
117.5358538273686
 20
-2.352631857207275
 11
117.8565819283722
 21
-2.052048906198583
  0
LINE
  5
40C
100
AcDbEntity
  8
0
  6
ByLayer
 62
    7
370
   -1
100
AcDbLine
 10
117.8565819283722
 20
-2.052048906198583
 11
118.1682803587706
 21
-1.742323664800156
  0
LINE
  5
40D
100
AcDbEntity
  8
0
  6
ByLayer
 62
    7
370
   -1
100
AcDbLine
 10
118.1682803587706
 20
-1.742323664800156
 11
118.4706145133811
 21
-1.423559738396211
  0
LINE
  5
40E
100
AcDbEntity
  8
0
  6
ByLayer
 62
    7
370
   -1
100
AcDbLine
 10
118.4706145133811
 20
-1.423559738396211
 11
118.7632497870208
 21
-1.095860732370909
  0
LINE
  5
40F
100
AcDbEntity
  8
0
  6
ByLayer
 62
    7
370
   -1
100
AcDbLine
 10
118.7632497870208
 20
-1.095860732370909
 11
119.0458515745069
 21
-0.7593302521084117
  0
LINE
  5
410
100
AcDbEntity
  8
0
  6
ByLayer
 62
    7
370
   -1
100
AcDbLine
 10
119.0458515745069
 20
-0.7593302521084117
 11
119.3180852706568
 21
-0.4140719029929154
  0
LINE
  5
411
100
AcDbEntity
  8
0
  6
ByLayer
 62
    7
370
   -1
100
AcDbLine
 10
119.3180852706568
 20
-0.4140719029929154
 11
119.5796162702875
 21
-0.06018929040858145
  0
LINE
  5
412
100
AcDbEntity
  8
0
  6
ByLayer
 62
    7
370
   -1
100
AcDbLine
 10
119.5796162702875
 20
-0.06018929040858145
 11
119.8301099682164
 21
0.3022139802604298
  0
LINE
  5
413
100
AcDbEntity
  8
0
  6
ByLayer
 62
    7
370
   -1
100
AcDbLine
 10
119.8301099682164
 20
0.3022139802604298
 11
120.0692317592607
 21
0.6730343036298927
  0
LINE
  5
414
100
AcDbEntity
  8
0
  6
ByLayer
 62
    7
370
   -1
100
AcDbLine
 10
120.0692317592607
 20
0.6730343036298927
 11
120.2966470382376
 21
1.052168074315674
  0
LINE
  5
415
100
AcDbEntity
  8
0
  6
ByLayer
 62
    7
370
   -1
100
AcDbLine
 10
120.2966470382376
 20
1.052168074315674
 11
120.5120211999643
 21
1.439511686933579
  0
LINE
  5
416
100
AcDbEntity
  8
0
  6
ByLayer
 62
    7
370
   -1
100
AcDbLine
 10
120.5120211999643
 20
1.439511686933579
 11
120.715019639258
 21
1.834961536099424
  0
LINE
  5
417
100
AcDbEntity
  8
0
  6
ByLayer
 62
    7
370
   -1
100
AcDbLine
 10
120.715019639258
 20
1.834961536099424
 11
120.9053077509361
 21
2.238414016429068
  0
LINE
  5
418
100
AcDbEntity
  8
0
  6
ByLayer
 62
    7
370
   -1
100
AcDbLine
 10
120.9053077509361
 20
2.238414016429068
 11
121.0825509298156
 21
2.649765522538294
  0
LINE
  5
419
100
AcDbEntity
  8
0
  6
ByLayer
 62
    7
370
   -1
100
AcDbLine
 10
121.0825509298156
 20
2.649765522538294
 11
121.3823505857184
 21
3.275909778924454
  0
LINE
  5
41A
100
AcDbEntity
  8
0
  6
ByLayer
 62
    7
370
   -1
100
AcDbLine
 10
121.3823505857184
 20
3.275909778924454
 11
121.6682893851545
 21
3.907193702659804
  0
LINE
  5
41B
100
AcDbEntity
  8
0
  6
ByLayer
 62
    7
370
   -1
100
AcDbLine
 10
121.6682893851545
 20
3.907193702659804
 11
121.9405825434573
 21
4.543406122383897
  0
LINE
  5
41C
100
AcDbEntity
  8
0
  6
ByLayer
 62
    7
370
   -1
100
AcDbLine
 10
121.9405825434573
 20
4.543406122383897
 11
122.1994452759604
 21
5.184335866736208
  0
LINE
  5
41D
100
AcDbEntity
  8
0
  6
ByLayer
 62
    7
370
   -1
100
AcDbLine
 10
122.1994452759604
 20
5.184335866736208
 11
122.4450927979973
 21
5.829771764356288
  0
LINE
  5
41E
100
AcDbEntity
  8
0
  6
ByLayer
 62
    7
370
   -1
100
AcDbLine
 10
122.4450927979973
 20
5.829771764356288
 11
122.6777403249014
 21
6.479502643883677
  0
LINE
  5
41F
100
AcDbEntity
  8
0
  6
ByLayer
 62
    7
370
   -1
100
AcDbLine
 10
122.6777403249014
 20
6.479502643883677
 11
122.8976030720062
 21
7.133317333957852
  0
LINE
  5
420
100
AcDbEntity
  8
0
  6
ByLayer
 62
    7
370
   -1
100
AcDbLine
 10
122.8976030720062
 20
7.133317333957852
 11
123.1048962546452
 21
7.791004663218358
  0
LINE
  5
421
100
AcDbEntity
  8
0
  6
ByLayer
 62
    7
370
   -1
100
AcDbLine
 10
123.1048962546452
 20
7.791004663218358
 11
123.299835088152
 21
8.452353460304737
  0
LINE
  5
422
100
AcDbEntity
  8
0
  6
ByLayer
 62
    7
370
   -1
100
AcDbLine
 10
123.299835088152
 20
8.452353460304737
 11
123.48263478786
 21
9.117152553856473
  0
LINE
  5
423
100
AcDbEntity
  8
0
  6
ByLayer
 62
    7
370
   -1
100
AcDbLine
 10
123.48263478786
 20
9.117152553856473
 11
123.6535105691026
 21
9.785190772513117
  0
LINE
  5
424
100
AcDbEntity
  8
0
  6
ByLayer
 62
    7
370
   -1
100
AcDbLine
 10
123.6535105691026
 20
9.785190772513117
 11
123.8126776472135
 21
10.45625694491418
  0
LINE
  5
425
100
AcDbEntity
  8
0
  6
ByLayer
 62
    7
370
   -1
100
AcDbLine
 10
123.8126776472135
 20
10.45625694491418
 11
123.960351237526
 21
11.13013989969918
  0
LINE
  5
426
100
AcDbEntity
  8
0
  6
ByLayer
 62
    7
370
   -1
100
AcDbLine
 10
123.960351237526
 20
11.13013989969918
 11
124.0967465553737
 21
11.80662846550764
  0
LINE
  5
427
100
AcDbEntity
  8
0
  6
ByLayer
 62
    7
370
   -1
100
AcDbLine
 10
124.0967465553737
 20
11.80662846550764
 11
124.22207881609
 21
12.4855114709791
  0
LINE
  5
428
100
AcDbEntity
  8
0
  6
ByLayer
 62
    7
370
   -1
100
AcDbLine
 10
124.22207881609
 20
12.4855114709791
 11
124.3365632350084
 21
13.16657774475305
  0
LINE
  5
429
100
AcDbEntity
  8
0
  6
ByLayer
 62
    7
370
   -1
100
AcDbLine
 10
124.3365632350084
 20
13.16657774475305
 11
124.4404150274625
 21
13.84961611546904
  0
LINE
  5
42A
100
AcDbEntity
  8
0
  6
ByLayer
 62
    7
370
   -1
100
AcDbLine
 10
124.4404150274625
 20
13.84961611546904
 11
124.5338494087858
 21
14.53441541176658
  0
LINE
  5
42B
100
AcDbEntity
  8
0
  6
ByLayer
 62
    7
370
   -1
100
AcDbLine
 10
124.5338494087858
 20
14.53441541176658
 11
124.6170815943116
 21
15.22076446228519
  0
LINE
  5
42C
100
AcDbEntity
  8
0
  6
ByLayer
 62
    7
370
   -1
100
AcDbLine
 10
124.6170815943116
 20
15.22076446228519
 11
124.6903267993735
 21
15.9084520956644
  0
LINE
  5
42D
100
AcDbEntity
  8
0
  6
ByLayer
 62
    7
370
   -1
100
AcDbLine
 10
124.6903267993735
 20
15.9084520956644
 11
124.753800239305
 21
16.59726714054373
  0
LINE
  5
42E
100
AcDbEntity
  8
0
  6
ByLayer
 62
    7
370
   -1
100
AcDbLine
 10
124.753800239305
 20
16.59726714054373
 11
124.8077171294397
 21
17.28699842556269
  0
LINE
  5
42F
100
AcDbEntity
  8
0
  6
ByLayer
 62
    7
370
   -1
100
AcDbLine
 10
124.8077171294397
 20
17.28699842556269
 11
124.8522926851108
 21
17.97743477936082
  0
LINE
  5
430
100
AcDbEntity
  8
0
  6
ByLayer
 62
    7
370
   -1
100
AcDbLine
 10
124.8522926851108
 20
17.97743477936082
 11
124.8877421216521
 21
18.66836503057764
  0
LINE
  5
431
100
AcDbEntity
  8
0
  6
ByLayer
 62
    7
370
   -1
100
AcDbLine
 10
124.8877421216521
 20
18.66836503057764
 11
124.9142806543968
 21
19.35957800785264
  0
LINE
  5
432
100
AcDbEntity
  8
0
  6
ByLayer
 62
    7
370
   -1
100
AcDbLine
 10
124.9142806543968
 20
19.35957800785264
 11
124.9321234986787
 21
20.05086253982538
  0
LINE
  5
433
100
AcDbEntity
  8
0
  6
ByLayer
 62
    7
370
   -1
100
AcDbLine
 10
124.9321234986787
 20
20.05086253982538
 11
124.941485869831
 21
20.74200745513538
  0
LINE
  5
434
100
AcDbEntity
  8
0
  6
ByLayer
 62
    7
370
   -1
100
AcDbLine
 10
124.941485869831
 20
20.74200745513538
 11
124.9425829831874
 21
21.43280158242214
  0
LINE
  5
435
100
AcDbEntity
  8
0
  6
ByLayer
 62
    7
370
   -1
100
AcDbLine
 10
124.9425829831874
 20
21.43280158242214
 11
124.9356300540813
 21
22.1230337503252
  0
LINE
  5
436
100
AcDbEntity
  8
0
  6
ByLayer
 62
    7
370
   -1
100
AcDbLine
 10
124.9356300540813
 20
22.1230337503252
 11
124.9208422978462
 21
22.81249278748408
  0
LINE
  5
437
100
AcDbEntity
  8
0
  6
ByLayer
 62
    7
370
   -1
100
AcDbLine
 10
124.9208422978462
 20
22.81249278748408
 11
124.8984349298156
 21
23.5009675225383
  0
LINE
  5
438
100
AcDbEntity
  8
0
  6
ByLayer
 62
    7
370
   -1
100
AcDbLine
 10
124.8984349298156
 20
23.5009675225383
 11
124.8984349298156
 21
23.5009675225383
  0
ENDSEC
  0
SECTION
  2
OBJECTS
  0
DICTIONARY
  5
C
330
0
100
AcDbDictionary
281
    1
  3
ACAD_GROUP
350
D
  0
DICTIONARY
  5
D
330
C
100
AcDbDictionary
281
    1
  0
ENDSEC
  0
EOF
