999
dxfrw 0.6.3
  0
SECTION
  2
HEADER
  9
$ACADVER
  1
AC1021
  9
$DWGCODEPAGE
  3
ANSI_1252
  9
$INSBASE
 10
0
 20
0
 30
0
  9
$EXTMIN
 10
10000000000
 20
10000000000
 30
0
  9
$EXTMAX
 10
-10000000000
 20
-10000000000
 30
0
  9
$LIMMIN
 10
0
 20
0
  9
$LIMMAX
 10
420
 20
297
  9
$ORTHOMODE
 70
    0
  9
$REGENMODE
 70
    1
  9
$FILLMODE
 70
    1
  9
$QTEXTMODE
 70
    0
  9
$MIRRTEXT
 70
    0
  9
$LTSCALE
 40
1
  9
$ATTMODE
 70
    0
  9
$TEXTSIZE
 40
2.5
  9
$TRACEWID
 40
15.68
  9
$TEXTSTYLE
  7
STANDARD
  9
$CLAYER
  8
traverses2
  9
$CELTYPE
  6
BYLAYER
  9
$CECOLOR
 62
  256
  9
$CELTSCALE
 40
1
  9
$DISPSILH
 70
    0
  9
$DIMSCALE
 40
2.5
  9
$DIMASZ
 40
2.5
  9
$DIMEXO
 40
0.625
  9
$DIMDLI
 40
3.75
  9
$DIMRND
 40
0
  9
$DIMDLE
 40
0
  9
$DIMEXE
 40
1.25
  9
$DIMTP
 40
0
  9
$DIMTM
 40
0
  9
$DIMTXT
 40
2.5
  9
$DIMCEN
 40
2.5
  9
$DIMTSZ
 40
0
  9
$DIMTOL
 70
    0
  9
$DIMLIM
 70
    0
  9
$DIMTIH
 70
    0
  9
$DIMTOH
 70
    0
  9
$DIMSE1
 70
    0
  9
$DIMSE2
 70
    0
  9
$DIMTAD
 70
    1
  9
$DIMZIN
 70
    1
  9
$DIMBLK
  1

  9
$DIMASO
 70
    1
  9
$DIMSHO
 70
    1
  9
$DIMPOST
  1

  9
$DIMAPOST
  1

  9
$DIMALT
 70
    0
  9
$DIMALTD
 70
    3
  9
$DIMALTF
 40
0.03937
  9
$DIMLFAC
 40
1
  9
$DIMTOFL
 70
    1
  9
$DIMTVP
 40
0
  9
$DIMTIX
 70
    0
  9
$DIMSOXD
 70
    0
  9
$DIMSAH
 70
    0
  9
$DIMBLK1
  1

  9
$DIMBLK2
  1

  9
$DIMSTYLE
  2
STANDARD
  9
$DIMCLRD
 70
    0
  9
$DIMCLRE
 70
    0
  9
$DIMCLRT
 70
    0
  9
$DIMTFAC
 40
1
  9
$DIMGAP
 40
0.625
  9
$DIMJUST
 70
    0
  9
$DIMSD1
 70
    0
  9
$DIMSD2
 70
    0
  9
$DIMTOLJ
 70
    0
  9
$DIMTZIN
 70
    8
  9
$DIMALTZ
 70
    0
  9
$DIMALTTZ
 70
    0
  9
$DIMUPT
 70
    0
  9
$DIMDEC
 70
    4
  9
$DIMTDEC
 70
    2
  9
$DIMALTU
 70
    2
  9
$DIMALTTD
 70
    3
  9
$DIMTXSTY
  7
STANDARD
  9
$DIMAUNIT
 70
    0
  9
$DIMADEC
 70
    2
  9
$DIMALTRND
 40
0
  9
$DIMAZIN
 70
    0
  9
$DIMDSEP
 70
   44
  9
$DIMATFIT
 70
    3
  9
$DIMFRAC
 70
    0
  9
$DIMLDRBLK
  1
STANDARD
  9
$DIMLUNIT
 70
    2
  9
$DIMLWD
 70
   -2
  9
$DIMLWE
 70
   -2
  9
$DIMTMOVE
 70
    0
  9
$DIMFXL
 40
1
  9
$DIMFXLON
 70
    0
  9
$DIMJOGANG
 40
0.7854
  9
$DIMTFILL
 70
    0
  9
$DIMTFILLCLR
 70
    0
  9
$DIMARCSYM
 70
    0
  9
$DIMLTYPE
  6

  9
$DIMLTEX1
  6

  9
$DIMLTEX2
  6

  9
$LUNITS
 70
    2
  9
$LUPREC
 70
    4
  9
$SKETCHINC
 40
1
  9
$FILLETRAD
 40
0
  9
$AUNITS
 70
    0
  9
$AUPREC
 70
    2
  9
$MENU
  1
.
  9
$ELEVATION
 40
0
  9
$PELEVATION
 40
0
  9
$THICKNESS
 40
0
  9
$LIMCHECK
 70
    0
  9
$CHAMFERA
 40
0
  9
$CHAMFERB
 40
0
  9
$CHAMFERC
 40
0
  9
$CHAMFERD
 40
0
  9
$SKPOLY
 70
    0
  9
$USRTIMER
 70
    1
  9
$ANGBASE
 50
0
  9
$ANGDIR
 70
    0
  9
$PDMODE
 70
   34
  9
$PDSIZE
 40
0
  9
$PLINEWID
 40
0
  9
$SPLFRAME
 70
    0
  9
$SPLINETYPE
 70
    2
  9
$SPLINESEGS
 70
    8
  9
$HANDSEED
  5
20000
  9
$SURFTAB1
 70
    6
  9
$SURFTAB2
 70
    6
  9
$SURFTYPE
 70
    6
  9
$SURFU
 70
    6
  9
$SURFV
 70
    6
  9
$UCSBASE
  2

  9
$UCSNAME
  2

  9
$UCSORG
 10
0
 20
0
 30
0
  9
$UCSXDIR
 10
1
 20
0
 30
0
  9
$UCSYDIR
 10
0
 20
1
 30
0
  9
$UCSORTHOREF
  2

  9
$UCSORTHOVIEW
 70
    0
  9
$UCSORGTOP
 10
0
 20
0
 30
0
  9
$UCSORGBOTTOM
 10
0
 20
0
 30
0
  9
$UCSORGLEFT
 10
0
 20
0
 30
0
  9
$UCSORGRIGHT
 10
0
 20
0
 30
0
  9
$UCSORGFRONT
 10
0
 20
0
 30
0
  9
$UCSORGBACK
 10
0
 20
0
 30
0
  9
$PUCSBASE
  2

  9
$PUCSNAME
  2

  9
$PUCSORG
 10
0
 20
0
 30
0
  9
$PUCSXDIR
 10
1
 20
0
 30
0
  9
$PUCSYDIR
 10
0
 20
1
 30
0
  9
$PUCSORTHOREF
  2

  9
$PUCSORTHOVIEW
 70
    0
  9
$PUCSORGTOP
 10
0
 20
0
 30
0
  9
$PUCSORGBOTTOM
 10
0
 20
0
 30
0
  9
$PUCSORGLEFT
 10
0
 20
0
 30
0
  9
$PUCSORGRIGHT
 10
0
 20
0
 30
0
  9
$PUCSORGFRONT
 10
0
 20
0
 30
0
  9
$PUCSORGBACK
 10
0
 20
0
 30
0
  9
$USERI1
 70
    0
  9
$USERI2
 70
    0
  9
$USERI3
 70
    0
  9
$USERI4
 70
    0
  9
$USERI5
 70
    0
  9
$USERR1
 40
0
  9
$USERR2
 40
0
  9
$USERR3
 40
0
  9
$USERR4
 40
0
  9
$USERR5
 40
0
  9
$WORLDVIEW
 70
    1
  9
$SHADEDGE
 70
    3
  9
$SHADEDIF
 70
   70
  9
$TILEMODE
 70
    1
  9
$MAXACTVP
 70
   64
  9
$PINSBASE
 10
0
 20
0
 30
0
  9
$PLIMCHECK
 70
    0
  9
$PEXTMIN
 10
0
 20
0
 30
0
  9
$PEXTMAX
 10
0
 20
0
 30
0
  9
$GRIDMODE
 70
    1
  9
$SNAPSTYLE
 70
    0
  9
$GRIDUNIT
 10
0
 20
0
  9
$PLIMMIN
 10
0
 20
0
  9
$PLIMMAX
 10
297
 20
210
  9
$UNITMODE
 70
    0
  9
$VISRETAIN
 70
    1
  9
$PLINEGEN
 70
    0
  9
$PSLTSCALE
 70
    1
  9
$TREEDEPTH
 70
 3020
  9
$CMLSTYLE
  2
Standard
  9
$CMLJUST
 70
    0
  9
$CMLSCALE
 40
20
  9
$PROXYGRAPHICS
 70
    1
  9
$MEASUREMENT
 70
    1
  9
$CELWEIGHT
370
   -1
  9
$ENDCAPS
280
    0
  9
$JOINSTYLE
280
    0
  9
$LWDISPLAY
290
    0
  9
$INSUNITS
 70
    4
  9
$HYPERLINKBASE
  1

  9
$STYLESHEET
  1

  9
$XEDIT
290
    1
  9
$CEPSNTYPE
380
    0
  9
$PSTYLEMODE
290
    1
  9
$EXTNAMES
290
    1
  9
$PSVPSCALE
 40
1
  9
$OLESTARTUP
290
    0
  9
$SORTENTS
280
  127
  9
$INDEXCTL
280
    0
  9
$HIDETEXT
280
    1
  9
$XCLIPFRAME
290
    0
  9
$HALOGAP
280
    0
  9
$OBSCOLOR
 70
  257
  9
$OBSLTYPE
280
    0
  9
$INTERSECTIONDISPLAY
280
    0
  9
$INTERSECTIONCOLOR
 70
  257
  9
$DIMASSOC
280
    1
  9
$PROJECTNAME
  1

  9
$CAMERADISPLAY
290
    0
  9
$LENSLENGTH
 40
50
  9
$CAMERAHEIGHT
 40
0
  9
$STEPSPERSEC
 40
2
  9
$STEPSIZE
 40
50
  9
$3DDWFPREC
 40
2
  9
$PSOLWIDTH
 40
5
  9
$PSOLHEIGHT
 40
80
  9
$LOFTANG1
 40
1.570796326794897
  9
$LOFTANG2
 40
1.570796326794897
  9
$LOFTMAG1
 40
0
  9
$LOFTMAG2
 40
0
  9
$LOFTPARAM
 70
    7
  9
$LOFTNORMALS
280
    1
  9
$LATITUDE
 40
1
  9
$LONGITUDE
 40
1
  9
$NORTHDIRECTION
 40
0
  9
$TIMEZONE
 70
-8000
  9
$LIGHTGLYPHDISPLAY
280
    1
  9
$TILEMODELIGHTSYNCH
280
    1
  9
$SOLIDHIST
280
    1
  9
$SHOWHIST
280
    1
  9
$DWFFRAME
280
    2
  9
$DGNFRAME
280
    0
  9
$REALWORLDSCALE
290
    1
  9
$INTERFERECOLOR
 62
    1
  9
$CSHADOW
280
    0
  9
$SHADOWPLANELOCATION
 40
0
  0
ENDSEC
  0
SECTION
  2
CLASSES
  0
ENDSEC
  0
SECTION
  2
TABLES
  0
TABLE
  2
VPORT
  5
8
330
0
100
AcDbSymbolTable
 70
    1
  0
VPORT
  5
31
330
2
100
AcDbSymbolTableRecord
100
AcDbViewportTableRecord
  2
*ACTIVE
 70
    0
 10
0
 20
0
 11
1
 21
1
 12
69.57186455828969
 22
24.50827046939751
 13
0
 23
0
 14
10
 24
10
 15
10
 25
10
 16
0
 26
0
 36
1
 17
0
 27
0
 37
0
 40
86.5130653435875
 41
2.339425587467363
 42
50
 43
0
 44
0
 50
0
 51
0
 71
    0
 72
  100
 73
    1
 74
    3
 75
    0
 76
    1
 77
    0
 78
    0
281
    0
 65
    1
110
0
120
0
130
0
111
1
121
0
131
0
112
0
122
1
132
0
 79
    0
146
0
348
10020
 60
    7
 61
    5
292
1
282
    1
141
0
142
0
 63
  250
421
3358443
  0
ENDTAB
  0
TABLE
  2
LTYPE
  5
5
330
0
100
AcDbSymbolTable
 70
    4
  0
LTYPE
  5
14
330
5
100
AcDbSymbolTableRecord
100
AcDbLinetypeTableRecord
  2
ByBlock
 70
    0
  3

 72
   65
 73
    0
 40
0
  0
LTYPE
  5
15
330
5
100
AcDbSymbolTableRecord
100
AcDbLinetypeTableRecord
  2
ByLayer
 70
    0
  3

 72
   65
 73
    0
 40
0
  0
LTYPE
  5
16
330
5
100
AcDbSymbolTableRecord
100
AcDbLinetypeTableRecord
  2
Continuous
 70
    0
  3
Solid line
 72
   65
 73
    0
 40
0
  0
LTYPE
  5
32
330
5
100
AcDbSymbolTableRecord
100
AcDbLinetypeTableRecord
  2
DOT
 70
    0
  3
Dot . . . . . . . . . . . . . . . . . . . . . .
 72
   65
 73
    2
 40
6.35
 49
0
 74
    0
 49
-6.35
 74
    0
  0
LTYPE
  5
33
330
5
100
AcDbSymbolTableRecord
100
AcDbLinetypeTableRecord
  2
DOTTINY
 70
    0
  3
Dot (.15x) .....................................
 72
   65
 73
    2
 40
0.9525
 49
0
 74
    0
 49
-0.9525
 74
    0
  0
LTYPE
  5
34
330
5
100
AcDbSymbolTableRecord
100
AcDbLinetypeTableRecord
  2
DOT2
 70
    0
  3
Dot (.5x) .....................................
 72
   65
 73
    2
 40
3.175
 49
0
 74
    0
 49
-3.175
 74
    0
  0
LTYPE
  5
35
330
5
100
AcDbSymbolTableRecord
100
AcDbLinetypeTableRecord
  2
DOTX2
 70
    0
  3
Dot (2x) .  .  .  .  .  .  .  .  .  .  .  .  .
 72
   65
 73
    2
 40
12.7
 49
0
 74
    0
 49
-12.7
 74
    0
  0
LTYPE
  5
36
330
5
100
AcDbSymbolTableRecord
100
AcDbLinetypeTableRecord
  2
DASHED
 70
    0
  3
Dashed _ _ _ _ _ _ _ _ _ _ _ _ _ _ _ _ _
 72
   65
 73
    2
 40
19.05
 49
12.7
 74
    0
 49
-6.35
 74
    0
  0
LTYPE
  5
37
330
5
100
AcDbSymbolTableRecord
100
AcDbLinetypeTableRecord
  2
DASHEDTINY
 70
    0
  3
Dashed (.15x) _ _ _ _ _ _ _ _ _ _ _ _ _ _ _ _ _
 72
   65
 73
    2
 40
2.8575
 49
1.905
 74
    0
 49
-0.9525
 74
    0
  0
LTYPE
  5
38
330
5
100
AcDbSymbolTableRecord
100
AcDbLinetypeTableRecord
  2
DASHED2
 70
    0
  3
Dashed (.5x) _ _ _ _ _ _ _ _ _ _ _ _ _ _ _ _ _
 72
   65
 73
    2
 40
9.524999999999999
 49
6.35
 74
    0
 49
-3.175
 74
    0
  0
LTYPE
  5
39
330
5
100
AcDbSymbolTableRecord
100
AcDbLinetypeTableRecord
  2
DASHEDX2
 70
    0
  3
Dashed (2x) ____  ____  ____  ____  ____  ___
 72
   65
 73
    2
 40
38.09999999999999
 49
25.4
 74
    0
 49
-12.7
 74
    0
  0
LTYPE
  5
3A
330
5
100
AcDbSymbolTableRecord
100
AcDbLinetypeTableRecord
  2
DASHDOT
 70
    0
  3
Dash dot __ . __ . __ . __ . __ . __ . __ . __
 72
   65
 73
    4
 40
25.4
 49
12.7
 74
    0
 49
-6.35
 74
    0
 49
0
 74
    0
 49
-6.35
 74
    0
  0
LTYPE
  5
3B
330
5
100
AcDbSymbolTableRecord
100
AcDbLinetypeTableRecord
  2
DASHDOTTINY
 70
    0
  3
Dash dot (.15x) _._._._._._._._._._._._._._._.
 72
   65
 73
    4
 40
3.81
 49
1.905
 74
    0
 49
-0.9525
 74
    0
 49
0
 74
    0
 49
-0.9525
 74
    0
  0
LTYPE
  5
3C
330
5
100
AcDbSymbolTableRecord
100
AcDbLinetypeTableRecord
  2
DASHDOT2
 70
    0
  3
Dash dot (.5x) _._._._._._._._._._._._._._._.
 72
   65
 73
    4
 40
12.7
 49
6.35
 74
    0
 49
-3.175
 74
    0
 49
0
 74
    0
 49
-3.175
 74
    0
  0
LTYPE
  5
3D
330
5
100
AcDbSymbolTableRecord
100
AcDbLinetypeTableRecord
  2
DASHDOTX2
 70
    0
  3
Dash dot (2x) ____  .  ____  .  ____  .  ___
 72
   65
 73
    4
 40
50.8
 49
25.4
 74
    0
 49
-12.7
 74
    0
 49
0
 74
    0
 49
-12.7
 74
    0
  0
LTYPE
  5
3E
330
5
100
AcDbSymbolTableRecord
100
AcDbLinetypeTableRecord
  2
DIVIDE
 70
    0
  3
Divide ____ . . ____ . . ____ . . ____ . . ____
 72
   65
 73
    6
 40
31.75
 49
12.7
 74
    0
 49
-6.35
 74
    0
 49
0
 74
    0
 49
-6.35
 74
    0
 49
0
 74
    0
 49
-6.35
 74
    0
  0
LTYPE
  5
3F
330
5
100
AcDbSymbolTableRecord
100
AcDbLinetypeTableRecord
  2
DIVIDETINY
 70
    0
  3
Divide (.15x) __..__..__..__..__..__..__..__.._
 72
   65
 73
    6
 40
4.7625
 49
1.905
 74
    0
 49
-0.9525
 74
    0
 49
0
 74
    0
 49
-0.9525
 74
    0
 49
0
 74
    0
 49
-0.9525
 74
    0
  0
LTYPE
  5
40
330
5
100
AcDbSymbolTableRecord
100
AcDbLinetypeTableRecord
  2
DIVIDE2
 70
    0
  3
Divide (.5x) __..__..__..__..__..__..__..__.._
 72
   65
 73
    6
 40
15.875
 49
6.35
 74
    0
 49
-3.175
 74
    0
 49
0
 74
    0
 49
-3.175
 74
    0
 49
0
 74
    0
 49
-3.175
 74
    0
  0
LTYPE
  5
41
330
5
100
AcDbSymbolTableRecord
100
AcDbLinetypeTableRecord
  2
DIVIDEX2
 70
    0
  3
Divide (2x) ________  .  .  ________  .  .  _
 72
   65
 73
    6
 40
63.5
 49
25.4
 74
    0
 49
-12.7
 74
    0
 49
0
 74
    0
 49
-12.7
 74
    0
 49
0
 74
    0
 49
-12.7
 74
    0
  0
LTYPE
  5
42
330
5
100
AcDbSymbolTableRecord
100
AcDbLinetypeTableRecord
  2
BORDER
 70
    0
  3
Border __ __ . __ __ . __ __ . __ __ . __ __ .
 72
   65
 73
    6
 40
44.45
 49
12.7
 74
    0
 49
-6.35
 74
    0
 49
12.7
 74
    0
 49
-6.35
 74
    0
 49
0
 74
    0
 49
-6.35
 74
    0
  0
LTYPE
  5
43
330
5
100
AcDbSymbolTableRecord
100
AcDbLinetypeTableRecord
  2
BORDERTINY
 70
    0
  3
Border (.15x) __.__.__.__.__.__.__.__.__.__.__.
 72
   65
 73
    6
 40
6.6675
 49
1.905
 74
    0
 49
-0.9525
 74
    0
 49
1.905
 74
    0
 49
-0.9525
 74
    0
 49
0
 74
    0
 49
-0.9525
 74
    0
  0
LTYPE
  5
44
330
5
100
AcDbSymbolTableRecord
100
AcDbLinetypeTableRecord
  2
BORDER2
 70
    0
  3
Border (.5x) __.__.__.__.__.__.__.__.__.__.__.
 72
   65
 73
    6
 40
22.225
 49
6.35
 74
    0
 49
-3.175
 74
    0
 49
6.35
 74
    0
 49
-3.175
 74
    0
 49
0
 74
    0
 49
-3.175
 74
    0
  0
LTYPE
  5
45
330
5
100
AcDbSymbolTableRecord
100
AcDbLinetypeTableRecord
  2
BORDERX2
 70
    0
  3
Border (2x) ____  ____  .  ____  ____  .  ___
 72
   65
 73
    6
 40
88.89999999999999
 49
25.4
 74
    0
 49
-12.7
 74
    0
 49
25.4
 74
    0
 49
-12.7
 74
    0
 49
0
 74
    0
 49
-12.7
 74
    0
  0
LTYPE
  5
46
330
5
100
AcDbSymbolTableRecord
100
AcDbLinetypeTableRecord
  2
CENTER
 70
    0
  3
Center ____ _ ____ _ ____ _ ____ _ ____ _ ____
 72
   65
 73
    4
 40
50.8
 49
31.75
 74
    0
 49
-6.35
 74
    0
 49
6.35
 74
    0
 49
-6.35
 74
    0
  0
LTYPE
  5
47
330
5
100
AcDbSymbolTableRecord
100
AcDbLinetypeTableRecord
  2
CENTERTINY
 70
    0
  3
Center (.15x) ___ _ ___ _ ___ _ ___ _ ___ _ ___
 72
   65
 73
    4
 40
7.619999999999999
 49
4.7625
 74
    0
 49
-0.9525
 74
    0
 49
0.9525
 74
    0
 49
-0.9525
 74
    0
  0
LTYPE
  5
48
330
5
100
AcDbSymbolTableRecord
100
AcDbLinetypeTableRecord
  2
CENTER2
 70
    0
  3
Center (.5x) ___ _ ___ _ ___ _ ___ _ ___ _ ___
 72
   65
 73
    4
 40
28.575
 49
19.05
 74
    0
 49
-3.175
 74
    0
 49
3.175
 74
    0
 49
-3.175
 74
    0
  0
LTYPE
  5
49
330
5
100
AcDbSymbolTableRecord
100
AcDbLinetypeTableRecord
  2
CENTERX2
 70
    0
  3
Center (2x) ________  __  ________  __  _____
 72
   65
 73
    4
 40
101.6
 49
63.5
 74
    0
 49
-12.7
 74
    0
 49
12.7
 74
    0
 49
-12.7
 74
    0
  0
ENDTAB
  0
TABLE
  2
LAYER
  5
2
330
0
100
AcDbSymbolTable
 70
    1
  0
LAYER
  5
10
330
2
100
AcDbSymbolTableRecord
100
AcDbLayerTableRecord
  2
0
 70
    5
 62
    7
  6
CONTINUOUS
370
    0
390
F
  0
LAYER
  5
4A
330
2
100
AcDbSymbolTableRecord
100
AcDbLayerTableRecord
  2
traverses
 70
    0
 62
    7
  6
CONTINUOUS
370
    0
390
F
  0
LAYER
  5
4B
330
2
100
AcDbSymbolTableRecord
100
AcDbLayerTableRecord
  2
traverses2
 70
    0
 62
    7
  6
CONTINUOUS
370
    0
390
F
  0
ENDTAB
  0
TABLE
  2
STYLE
  5
3
330
0
100
AcDbSymbolTable
 70
    3
  0
STYLE
  5
4C
330
2
100
AcDbSymbolTableRecord
100
AcDbTextStyleTableRecord
  2
Standard
 70
    0
 40
0
 41
1
 50
0
 71
    0
 42
1
  3
txt
  4

  0
ENDTAB
  0
TABLE
  2
VIEW
  5
6
330
0
100
AcDbSymbolTable
 70
    0
  0
ENDTAB
  0
TABLE
  2
UCS
  5
7
330
0
100
AcDbSymbolTable
 70
    0
  0
ENDTAB
  0
TABLE
  2
APPID
  5
9
330
0
100
AcDbSymbolTable
 70
    1
  0
APPID
  5
12
330
9
100
AcDbSymbolTableRecord
100
AcDbRegAppTableRecord
  2
ACAD
 70
    0
  0
APPID
  5
4D
330
9
100
AcDbSymbolTableRecord
100
AcDbRegAppTableRecord
  2
LibreCad
 70
    0
  0
ENDTAB
  0
TABLE
  2
DIMSTYLE
  5
A
330
0
100
AcDbSymbolTable
 70
    1
100
AcDbDimStyleTable
 71
    1
  0
DIMSTYLE
105
4E
330
A
100
AcDbSymbolTableRecord
100
AcDbDimStyleTableRecord
  2
Standard
 70
    0
 40
2.5
 41
2.5
 42
0.625
 43
0.38
 44
1.25
 45
0
 46
0
 47
0
 48
0
 49
1
140
2.5
141
0.09
142
0
143
25.4
144
1
145
0
146
1
147
0.625
148
0
 71
    0
 72
    0
 73
    0
 74
    1
 75
    0
 76
    0
 77
    0
 78
    1
 79
    0
170
    0
171
    2
172
    0
173
    0
174
    0
175
    0
176
    0
177
    0
178
    0
179
    2
271
    4
272
    4
273
    2
274
    2
275
    0
276
    0
277
    2
278
   44
279
    0
280
    0
281
    0
282
    0
283
    1
284
    0
285
    0
286
    0
288
    0
289
    3
340
STANDARD
341

371
   -2
372
   -2
  0
ENDTAB
  0
TABLE
  2
BLOCK_RECORD
  5
1
330
0
100
AcDbSymbolTable
 70
    2
  0
BLOCK_RECORD
  5
1F
330
1
100
AcDbSymbolTableRecord
100
AcDbBlockTableRecord
  2
*Model_Space
 70
    0
280
    1
281
    0
  0
BLOCK_RECORD
  5
1E
330
1
100
AcDbSymbolTableRecord
100
AcDbBlockTableRecord
  2
*Paper_Space
 70
    0
280
    1
281
    0
  0
ENDTAB
  0
ENDSEC
  0
SECTION
  2
BLOCKS
  0
BLOCK
  5
20
330
1F
100
AcDbEntity
  8
0
100
AcDbBlockBegin
  2
*Model_Space
 70
    0
 10
0
 20
0
 30
0
  3
*Model_Space
  1

  0
ENDBLK
  5
21
330
1F
100
AcDbEntity
  8
0
100
AcDbBlockEnd
  0
BLOCK
  5
1C
330
1B
100
AcDbEntity
  8
0
100
AcDbBlockBegin
  2
*Paper_Space
 70
    0
 10
0
 20
0
 30
0
  3
*Paper_Space
  1

  0
ENDBLK
  5
1D
330
1F
100
AcDbEntity
  8
0
100
AcDbBlockEnd
  0
ENDSEC
  0
SECTION
  2
ENTITIES
  0
HATCH
  5
4F
100
AcDbEntity
  8
0
  6
ByLayer
 62
  256
370
   -1
100
AcDbHatch
 10
0
 20
0
 30
0
210
0
220
0
230
1
  2
SOLID
 70
    1
 71
    0
 91
    1
 92
    0
 93
   10
 72
    1
 10
68.85928560928494
 20
23.92000000000002
 11
43.92780045221406
 21
3.000000000000028
 72
    1
 10
43.92780045221406
 20
3.000000000000028
 11
41.59421471192343
 21
3.000000000000021
 72
    2
 10
41.5942147119234
 20
8.000000000000032
 40
5.000000000000006
 50
89.99999999999974
 51
140.0000000000001
 73
    0
 72
    1
 10
37.76399249632851
 20
4.786061951567337
 11
38.91305916100697
 21
5.750243366097141
 72
    2
 10
41.5942147119234
 20
8.000000000000032
 40
3.500000000000006
 50
219.9999999999999
 51
270.0000000000002
 73
    1
 72
    1
 10
41.5942147119234
 20
4.500000000000021
 11
43.38184510081473
 21
4.500000000000028
 72
    1
 10
43.38184510081473
 20
4.500000000000028
 11
61.85155603287475
 21
19.99792763104254
 72
    1
 10
61.85155603287475
 20
19.99792763104254
 11
60.55038250888097
 21
19.92070211712907
 72
    2
 10
64.04423436923415
 20
20.12806454840972
 40
3.50000000000001
 50
176.6034417726971
 51
266.603441772697
 73
    0
 72
    1
 10
63.8368719379535
 20
23.62191640876291
 11
68.85928560928494
 21
23.92000000000002
 97
    0
 75
    0
 76
    1
 98
    0
  0
HATCH
  5
50
100
AcDbEntity
  8
0
  6
ByLayer
 62
  256
370
   -1
100
AcDbHatch
 10
0
 20
0
 30
0
210
0
220
0
230
1
  2
SOLID
 70
    1
 71
    0
 91
    1
 92
    0
 93
   10
 72
    1
 10
77.01949826153319
 20
1.500000000000018
 11
44.47375580361336
 21
1.500000000000036
 72
    1
 10
44.47375580361336
 20
1.500000000000036
 11
42.686125414722
 21
4.263256414560601e-14
 72
    2
 10
45.90006346315468
 20
-3.830222215594869
 40
5.000000000000006
 50
129.9999999999997
 51
180
 73
    1
 72
    1
 10
40.90006346315468
 20
-3.830222215594869
 11
42.40006346315468
 21
-3.830222215594876
 72
    2
 10
45.90006346315468
 20
-3.830222215594869
 40
3.500000000000006
 50
180
 51
230.0000000000003
 73
    0
 72
    1
 10
43.65030682925183
 20
-1.149066664678426
 11
45.01971115501266
 21
4.618527782440651e-14
 72
    1
 10
45.01971115501266
 20
4.618527782440651e-14
 11
69.13020643758384
 21
2.131628207280301e-14
 72
    1
 10
69.13020643758384
 20
2.131628207280301e-14
 11
68.08381008649962
 21
-0.7772200434749301
 72
    2
 10
70.89354589074577
 20
1.309735804246163
 40
3.50000000000001
 50
216.6034417726971
 51
306.603441772697
 73
    1
 72
    1
 10
72.98050173846684
 20
-1.499999999999996
 11
77.01949826153319
 21
1.500000000000018
 97
    0
 75
    0
 76
    1
 98
    0
  0
HATCH
  5
51
100
AcDbEntity
  8
0
  6
ByLayer
 62
  256
370
   -1
100
AcDbHatch
 10
0
 20
0
 30
0
210
0
220
0
230
1
  2
SOLID
 70
    1
 71
    0
 91
    1
 92
    0
 93
   10
 72
    1
 10
81.14071439071509
 20
3.000000000000004
 11
106.072199547786
 21
23.92000000000001
 72
    1
 10
106.072199547786
 20
23.92000000000001
 11
108.4057852880766
 21
23.92000000000002
 72
    2
 10
108.4057852880766
 20
18.92000000000002
 40
5.000000000000006
 50
269.9999999999998
 51
320.0000000000001
 73
    0
 72
    1
 10
112.2360075036715
 20
22.13393804843271
 11
111.0869408389931
 21
21.1697566339029
 72
    2
 10
108.4057852880766
 20
18.92000000000002
 40
3.500000000000006
 50
39.99999999999996
 51
90.00000000000026
 73
    1
 72
    1
 10
108.4057852880766
 20
22.42000000000002
 11
106.6181548991853
 21
22.42000000000002
 72
    1
 10
106.6181548991853
 20
22.42000000000002
 11
88.14844396712527
 21
6.922072368957487
 72
    1
 10
88.14844396712527
 20
6.922072368957487
 11
89.44961749111906
 21
6.999297882870959
 72
    2
 10
85.95576563076588
 20
6.791935451590302
 40
3.50000000000001
 50
356.6034417726971
 51
86.60344177269704
 73
    0
 72
    1
 10
86.16312806204655
 20
3.298083591237113
 11
81.14071439071509
 21
3.000000000000004
 97
    0
 75
    0
 76
    1
 98
    0
  0
HATCH
  5
52
100
AcDbEntity
  8
0
  6
ByLayer
 62
  256
370
   -1
100
AcDbHatch
 10
0
 20
0
 30
0
210
0
220
0
230
1
  2
SOLID
 70
    1
 71
    0
 91
    1
 92
    0
 93
   10
 72
    1
 10
72.98050173846684
 20
25.42
 11
105.5262441963867
 21
25.42
 72
    1
 10
105.5262441963867
 20
25.42
 11
107.313874585278
 21
26.92
 72
    2
 10
104.0999365368453
 20
30.75022221559491
 40
5.000000000000006
 50
309.9999999999997
 51
0
 73
    1
 72
    1
 10
109.0999365368453
 20
30.75022221559491
 11
107.5999365368453
 21
30.75022221559491
 72
    2
 10
104.0999365368453
 20
30.75022221559491
 40
3.500000000000006
 50
360
 51
50.0000000000003
 73
    0
 72
    1
 10
106.3496931707482
 20
28.06906666467847
 11
104.9802888449874
 21
26.92
 72
    1
 10
104.9802888449874
 20
26.92
 11
80.86979356241616
 21
26.92
 72
    1
 10
80.86979356241616
 20
26.92
 11
81.9161899135004
 21
27.69722004347496
 72
    2
 10
79.10645410925426
 20
25.61026419575385
 40
3.50000000000001
 50
36.60344177269709
 51
126.603441772697
 73
    1
 72
    1
 10
77.01949826153316
 20
28.42
 11
72.98050173846684
 21
25.42
 97
    0
 75
    0
 76
    1
 98
    0
  0
HATCH
  5
53
100
AcDbEntity
  8
0
  6
ByLayer
 62
  256
370
   -1
100
AcDbHatch
 10
0
 20
0
 30
0
210
0
220
0
230
1
  2
SOLID
 70
    1
 71
    0
 91
    1
 92
    0
 93
    6
 72
    2
 10
94.17236428430205
 20
20.43816991999438
 40
3.481830080005582
 50
50.00000000000035
 51
270
 73
    0
 72
    1
 10
94.17236428430203
 20
23.91999999999996
 11
103.7386138074954
 21
23.91999999999994
 72
    1
 10
103.7386138074954
 20
23.91999999999994
 11
96.41044151876352
 21
17.77093333532159
 72
    2
 10
94.17236428430205
 20
20.43816991999438
 40
1.981830080005582
 50
50.00003376773486
 51
269.9999745500264
 73
    0
 72
    1
 10
94.17236340400122
 20
22.41999999999977
 11
99.61739767831344
 21
22.41999999999994
 72
    1
 10
99.61739767831344
 20
22.41999999999994
 11
95.44625920948768
 21
18.91999924921944
 97
    0
 75
    0
 76
    1
 98
    0
  0
HATCH
  5
54
100
AcDbEntity
  8
0
  6
ByLayer
 62
  256
370
   -1
100
AcDbHatch
 10
0
 20
0
 30
0
210
0
220
0
230
1
  2
SOLID
 70
    1
 71
    0
 91
    1
 92
    0
 93
    6
 72
    2
 10
55.82763571569795
 20
6.48183008000565
 40
3.481830080005582
 50
270.0000000000002
 51
129.9999999999999
 73
    1
 72
    1
 10
53.58955848123648
 20
9.14906666467844
 11
46.26138619250466
 21
3
 72
    1
 10
46.26138619250466
 20
3
 11
55.82763571569797
 21
3.000000000000068
 72
    2
 10
55.82763571569795
 20
6.48183008000565
 40
1.981830080005582
 50
270.0000337677347
 51
129.9999745500263
 73
    1
 72
    1
 10
54.55374057011598
 20
8.000000565846294
 11
50.3826023216866
 21
4.5
 72
    1
 10
50.3826023216866
 20
4.5
 11
55.82763688370567
 21
4.500000000000412
 97
    0
 75
    0
 76
    1
 98
    0
  0
HATCH
  5
55
100
AcDbEntity
  8
0
  6
ByLayer
 62
  256
370
   -1
100
AcDbHatch
 10
0
 20
0
 30
0
210
0
220
0
230
1
  2
SOLID
 70
    1
 71
    0
 91
    1
 92
    0
 93
   10
 72
    1
 10
72.81613990501373
 20
4.499999999999996
 11
78.26117329902513
 21
4.499999999999986
 72
    1
 10
78.26117329902513
 20
4.499999999999986
 11
83.80171519886569
 21
9.14906666467845
 72
    2
 10
81.55195856496282
 20
11.83022221559488
 40
3.5
 50
309.9999999999999
 51
39.99999999999996
 73
    1
 72
    1
 10
84.23311411587925
 20
14.07997884949776
 11
85.3821807805577
 21
15.04416026402757
 72
    2
 10
81.55195856496282
 20
11.83022221559488
 40
5
 50
320.0000000000001
 51
50.00000000000004
 73
    0
 72
    1
 10
84.7658966133955
 20
7.999999999999986
 11
78.80712865042446
 21
2.999999999999993
 72
    1
 10
78.80712865042446
 20
2.999999999999993
 11
72.81613990501371
 21
2.999999999999989
 72
    2
 10
72.81613990501374
 20
7.999999999999989
 40
4.99999999999999
 50
90.00000000000026
 51
180.0000000000001
 73
    0
 72
    1
 10
67.81613990501374
 20
7.999999999999984
 11
69.31613990501376
 21
7.999999999999986
 72
    2
 10
72.81613990501374
 20
7.999999999999989
 40
3.49999999999999
 50
179.9999999999999
 51
269.9999999999998
 73
    1
 97
    0
 75
    0
 76
    1
 98
    0
  0
HATCH
  5
56
100
AcDbEntity
  8
0
  6
ByLayer
 62
  256
370
   -1
100
AcDbHatch
 10
0
 20
0
 30
0
210
0
220
0
230
1
  2
SOLID
 70
    1
 71
    0
 91
    1
 92
    0
 93
   10
 72
    1
 10
67.56768912689509
 20
18.92
 11
71.73882670097481
 21
22.42
 72
    1
 10
71.73882670097481
 20
22.42
 11
78.97149048387756
 21
22.42
 72
    2
 10
78.97149048387756
 20
18.92
 40
3.5
 50
270
 51
360
 73
    0
 72
    1
 10
82.47149048387756
 20
18.92
 11
83.97149048387756
 21
18.92
 72
    2
 10
78.97149048387756
 20
18.92
 40
5
 50
0
 51
90
 73
    1
 72
    1
 10
78.97149048387756
 20
23.92
 11
71.19287134957551
 21
23.92
 72
    1
 10
71.19287134957551
 20
23.92
 11
66.60350771236527
 21
20.06906666467847
 72
    2
 10
69.81744576079798
 20
16.23884444908359
 40
4.99999999999999
 50
130.0000000000002
 51
220
 73
    1
 72
    1
 10
65.98722354520309
 20
13.0249064006509
 11
67.13629020988157
 21
13.98908781518071
 72
    2
 10
69.81744576079798
 20
16.23884444908359
 40
3.49999999999999
 50
140
 51
229.9999999999998
 73
    0
 97
    0
 75
    0
 76
    1
 98
    0
  0
HATCH
  5
57
100
AcDbEntity
  8
0
  6
ByLayer
 62
  256
370
   -1
100
AcDbHatch
 10
0
 20
0
 30
0
210
0
220
0
230
1
  2
SOLID
 70
    1
 71
    0
 91
    1
 92
    0
 93
    6
 72
    1
 10
9.858926954225637
 20
-25.58717918678747
 11
42.14017006332272
 21
1.5
 72
    1
 10
42.14017006332272
 20
1.5
 11
9.184850993605148e-17
 21
1.5
 72
    1
 10
9.184850993605148e-17
 20
1.5
 11
0
 21
0
 72
    1
 10
0
 20
0
 11
38.01895393414079
 21
0
 72
    1
 10
38.01895393414079
 20
0
 11
8.894745539695833
 21
-24.438112522109
 72
    1
 10
8.894745539695833
 20
-24.438112522109
 11
9.858926954225637
 21
-25.58717918678747
 97
    0
 75
    0
 76
    1
 98
    0
  0
HATCH
  5
58
100
AcDbEntity
  8
0
  6
ByLayer
 62
  256
370
   -1
100
AcDbHatch
 10
0
 20
0
 30
0
210
0
220
0
230
1
  2
SOLID
 70
    1
 71
    0
 91
    1
 92
    0
 93
    6
 72
    1
 10
26.19858799245747
 20
-45.06002893087189
 11
79.89903935322309
 21
0
 72
    1
 10
79.89903935322309
 20
0
 11
150
 21
0
 72
    1
 10
150
 20
0
 11
150
 21
1.5
 72
    1
 10
150
 20
1.5
 11
79.35308400182377
 21
1.5
 72
    1
 10
79.35308400182377
 20
1.5
 11
25.23440657792766
 21
-43.91096226619342
 72
    1
 10
25.23440657792766
 20
-43.91096226619342
 11
26.19858799245747
 21
-45.06002893087189
 97
    0
 75
    0
 76
    1
 98
    0
  0
HATCH
  5
59
100
AcDbEntity
  8
0
  6
ByLayer
 62
  256
370
   -1
100
AcDbHatch
 10
0
 20
0
 30
0
210
0
220
0
230
1
  2
SOLID
 70
    1
 71
    0
 91
    1
 92
    0
 93
    6
 72
    1
 10
111.9810460658592
 20
26.92
 11
141.1052544603042
 21
51.358112522109
 72
    1
 10
141.1052544603042
 20
51.358112522109
 11
140.1410730457744
 21
52.50717918678747
 72
    1
 10
140.1410730457744
 20
52.50717918678747
 11
107.8598299366773
 21
25.42
 72
    1
 10
107.8598299366773
 20
25.42
 11
150
 21
25.42
 72
    1
 10
150
 20
25.42
 11
150
 21
26.92
 72
    1
 10
150
 20
26.92
 11
111.9810460658592
 21
26.92
 97
    0
 75
    0
 76
    1
 98
    0
  0
HATCH
  5
5A
100
AcDbEntity
  8
0
  6
ByLayer
 62
  256
370
   -1
100
AcDbHatch
 10
0
 20
0
 30
0
210
0
220
0
230
1
  2
SOLID
 70
    1
 71
    0
 91
    1
 92
    0
 93
    6
 72
    1
 10
70.10096064677694
 20
26.92
 11
123.8014120075425
 21
71.9800289308719
 72
    1
 10
123.8014120075425
 20
71.9800289308719
 11
124.7655934220723
 21
70.83096226619342
 72
    1
 10
124.7655934220723
 20
70.83096226619342
 11
70.64691599817624
 21
25.42
 72
    1
 10
70.64691599817624
 20
25.42
 11
1.556526081716286e-15
 21
25.42
 72
    1
 10
1.556526081716286e-15
 20
25.42
 11
1.648374591652338e-15
 21
26.92
 72
    1
 10
1.648374591652338e-15
 20
26.92
 11
70.10096064677694
 21
26.92
 97
    0
 75
    0
 76
    1
 98
    0
  0
LINE
  5
5B
100
AcDbEntity
  8
0
  6
ByLayer
 62
  256
370
   -1
100
AcDbLine
 10
72.98050173846684
 20
25.42
 11
105.5262441963867
 21
25.42
  0
LINE
  5
5C
100
AcDbEntity
  8
0
  6
ByLayer
 62
  256
370
   -1
100
AcDbLine
 10
70.10096064677694
 20
26.92
 11
123.8014120075425
 21
71.9800289308719
  0
LINE
  5
5D
100
AcDbEntity
  8
0
  6
ByLayer
 62
  256
370
   -1
100
AcDbLine
 10
1.648374591652338e-15
 20
26.92
 11
70.10096064677694
 21
26.92
  0
LINE
  5
5E
100
AcDbEntity
  8
0
  6
ByLayer
 62
  256
370
   -1
100
AcDbLine
 10
70.64691599817624
 20
25.42
 11
124.7655934220723
 21
70.83096226619342
  0
LINE
  5
5F
100
AcDbEntity
  8
0
  6
ByLayer
 62
  256
370
   -1
100
AcDbLine
 10
1.556526081716286e-15
 20
25.42
 11
70.64691599817624
 21
25.42
  0
LINE
  5
60
100
AcDbEntity
  8
0
  6
ByLayer
 62
  256
370
   -1
100
AcDbLine
 10
26.19858799245747
 20
-45.06002893087189
 11
79.89903935322309
 21
0
  0
LINE
  5
61
100
AcDbEntity
  8
0
  6
ByLayer
 62
  256
370
   -1
100
AcDbLine
 10
79.89903935322309
 20
0
 11
150
 21
0
  0
LINE
  5
62
100
AcDbEntity
  8
0
  6
ByLayer
 62
  256
370
   -1
100
AcDbLine
 10
25.23440657792766
 20
-43.91096226619342
 11
79.35308400182377
 21
1.5
  0
LINE
  5
63
100
AcDbEntity
  8
0
  6
ByLayer
 62
  256
370
   -1
100
AcDbLine
 10
79.35308400182377
 20
1.5
 11
150
 21
1.5
  0
LINE
  5
64
100
AcDbEntity
  8
0
  6
ByLayer
 62
  256
370
   -1
100
AcDbLine
 10
111.9810460658592
 20
26.92
 11
141.1052544603042
 21
51.358112522109
  0
LINE
  5
65
100
AcDbEntity
  8
0
  6
ByLayer
 62
  256
370
   -1
100
AcDbLine
 10
111.9810460658592
 20
26.92
 11
150
 21
26.92
  0
LINE
  5
66
100
AcDbEntity
  8
0
  6
ByLayer
 62
  256
370
   -1
100
AcDbLine
 10
107.8598299366773
 20
25.42
 11
140.1410730457744
 21
52.50717918678747
  0
LINE
  5
67
100
AcDbEntity
  8
0
  6
ByLayer
 62
  256
370
   -1
100
AcDbLine
 10
107.8598299366773
 20
25.42
 11
150
 21
25.42
  0
LINE
  5
68
100
AcDbEntity
  8
0
  6
ByLayer
 62
  256
370
   -1
100
AcDbLine
 10
9.858926954225637
 20
-25.58717918678747
 11
42.14017006332272
 21
1.5
  0
LINE
  5
69
100
AcDbEntity
  8
0
  6
ByLayer
 62
  256
370
   -1
100
AcDbLine
 10
9.184850993605148e-17
 20
1.5
 11
42.14017006332272
 21
1.5
  0
LINE
  5
6A
100
AcDbEntity
  8
0
  6
ByLayer
 62
  256
370
   -1
100
AcDbLine
 10
0
 20
0
 11
38.01895393414079
 21
0
  0
LINE
  5
6B
100
AcDbEntity
  8
0
  6
ByLayer
 62
  256
370
   -1
100
AcDbLine
 10
8.894745539695833
 20
-24.438112522109
 11
38.01895393414079
 21
0
  0
LINE
  5
6C
100
AcDbEntity
  8
0
  6
ByLayer
 62
  256
370
   -1
100
AcDbLine
 10
107.313874585278
 20
26.92
 11
105.5262441963867
 21
25.42
  0
LINE
  5
6D
100
AcDbEntity
  8
0
  6
ByLayer
 62
  256
370
   -1
100
AcDbLine
 10
1.648374591652338e-15
 20
26.92
 11
1.556526081716286e-15
 21
25.42
  0
LINE
  5
6E
100
AcDbEntity
  8
0
  6
ByLayer
 62
  256
370
   -1
100
AcDbLine
 10
9.184850993605148e-17
 20
1.5
 11
0
 21
0
  0
LINE
  5
6F
100
AcDbEntity
  8
0
  6
ByLayer
 62
  256
370
   -1
100
AcDbLine
 10
8.894745539695833
 20
-24.438112522109
 11
9.858926954225637
 21
-25.58717918678747
  0
LINE
  5
70
100
AcDbEntity
  8
0
  6
ByLayer
 62
  256
370
   -1
100
AcDbLine
 10
123.8014120075425
 20
71.9800289308719
 11
124.7655934220723
 21
70.83096226619342
  0
LINE
  5
71
100
AcDbEntity
  8
0
  6
ByLayer
 62
  256
370
   -1
100
AcDbLine
 10
140.1410730457744
 20
52.50717918678747
 11
141.1052544603042
 21
51.358112522109
  0
LINE
  5
72
100
AcDbEntity
  8
0
  6
ByLayer
 62
  256
370
   -1
100
AcDbLine
 10
150
 20
26.92
 11
150
 21
25.42
  0
LINE
  5
73
100
AcDbEntity
  8
0
  6
ByLayer
 62
  256
370
   -1
100
AcDbLine
 10
150
 20
1.5
 11
150
 21
0
  0
LINE
  5
74
100
AcDbEntity
  8
0
  6
ByLayer
 62
  256
370
   -1
100
AcDbLine
 10
25.23440657792766
 20
-43.91096226619342
 11
26.19858799245747
 21
-45.06002893087189
  0
LINE
  5
75
100
AcDbEntity
  8
0
  6
ByLayer
 62
  256
370
   -1
100
AcDbLine
 10
67.56768912689509
 20
18.92
 11
71.73882670097481
 21
22.42
  0
LINE
  5
76
100
AcDbEntity
  8
0
  6
ByLayer
 62
  256
370
   -1
100
AcDbLine
 10
71.19287134957551
 20
23.92
 11
78.97149048387756
 21
23.92
  0
ARC
  5
77
100
AcDbEntity
  8
0
  6
ByLayer
 62
  256
370
   -1
100
AcDbCircle
 10
78.97149048387756
 20
18.92
 40
5
100
AcDbArc
 50
0
 51
90
  0
ARC
  5
78
100
AcDbEntity
  8
0
  6
ByLayer
 62
  256
370
   -1
100
AcDbCircle
 10
78.97149048387756
 20
18.92
 40
3.5
100
AcDbArc
 50
0
 51
90
  0
LINE
  5
79
100
AcDbEntity
  8
0
  6
ByLayer
 62
  256
370
   -1
100
AcDbLine
 10
78.97149048387756
 20
22.42
 11
71.73882670097481
 21
22.42
  0
LINE
  5
7A
100
AcDbEntity
  8
0
  6
ByLayer
 62
  256
370
   -1
100
AcDbLine
 10
82.47149048387756
 20
18.92
 11
83.97149048387756
 21
18.92
  0
ARC
  5
7B
100
AcDbEntity
  8
0
  6
ByLayer
 62
  256
370
   -1
100
AcDbCircle
 10
69.81744576079798
 20
16.23884444908359
 40
3.49999999999999
100
AcDbArc
 50
130.0000000000002
 51
220
  0
ARC
  5
7C
100
AcDbEntity
  8
0
  6
ByLayer
 62
  256
370
   -1
100
AcDbCircle
 10
69.81744576079798
 20
16.23884444908359
 40
4.99999999999999
100
AcDbArc
 50
130.0000000000002
 51
220
  0
LINE
  5
7D
100
AcDbEntity
  8
0
  6
ByLayer
 62
  256
370
   -1
100
AcDbLine
 10
71.19287134957551
 20
23.92
 11
66.60350771236527
 21
20.06906666467847
  0
LINE
  5
7E
100
AcDbEntity
  8
0
  6
ByLayer
 62
  256
370
   -1
100
AcDbLine
 10
67.13629020988157
 20
13.98908781518071
 11
65.98722354520309
 21
13.0249064006509
  0
LINE
  5
7F
100
AcDbEntity
  8
0
  6
ByLayer
 62
  256
370
   -1
100
AcDbLine
 10
72.81613990501373
 20
4.499999999999996
 11
78.26117329902513
 21
4.499999999999986
  0
LINE
  5
80
100
AcDbEntity
  8
0
  6
ByLayer
 62
  256
370
   -1
100
AcDbLine
 10
78.80712865042446
 20
2.999999999999993
 11
84.7658966133955
 21
7.999999999999986
  0
ARC
  5
81
100
AcDbEntity
  8
0
  6
ByLayer
 62
  256
370
   -1
100
AcDbCircle
 10
81.55195856496282
 20
11.83022221559488
 40
5
100
AcDbArc
 50
309.9999999999999
 51
39.99999999999996
  0
ARC
  5
82
100
AcDbEntity
  8
0
  6
ByLayer
 62
  256
370
   -1
100
AcDbCircle
 10
81.55195856496282
 20
11.83022221559488
 40
3.5
100
AcDbArc
 50
309.9999999999999
 51
39.99999999999996
  0
LINE
  5
83
100
AcDbEntity
  8
0
  6
ByLayer
 62
  256
370
   -1
100
AcDbLine
 10
83.80171519886569
 20
9.14906666467845
 11
78.26117329902513
 21
4.499999999999986
  0
LINE
  5
84
100
AcDbEntity
  8
0
  6
ByLayer
 62
  256
370
   -1
100
AcDbLine
 10
84.23311411587925
 20
14.07997884949776
 11
85.3821807805577
 21
15.04416026402757
  0
ARC
  5
85
100
AcDbEntity
  8
0
  6
ByLayer
 62
  256
370
   -1
100
AcDbCircle
 10
72.81613990501374
 20
7.999999999999989
 40
3.49999999999999
100
AcDbArc
 50
179.9999999999999
 51
269.9999999999998
  0
ARC
  5
86
100
AcDbEntity
  8
0
  6
ByLayer
 62
  256
370
   -1
100
AcDbCircle
 10
72.81613990501374
 20
7.999999999999989
 40
4.99999999999999
100
AcDbArc
 50
179.9999999999999
 51
269.9999999999998
  0
LINE
  5
87
100
AcDbEntity
  8
0
  6
ByLayer
 62
  256
370
   -1
100
AcDbLine
 10
78.80712865042446
 20
2.999999999999993
 11
72.81613990501371
 21
2.999999999999989
  0
LINE
  5
88
100
AcDbEntity
  8
0
  6
ByLayer
 62
  256
370
   -1
100
AcDbLine
 10
69.31613990501376
 20
7.999999999999986
 11
67.81613990501374
 21
7.999999999999984
  0
ARC
  5
89
100
AcDbEntity
  8
0
  6
ByLayer
 62
  256
370
   -1
100
AcDbCircle
 10
55.82763571569795
 20
6.48183008000565
 40
3.481830080005582
100
AcDbArc
 50
270.0000000000002
 51
129.9999999999999
  0
ARC
  5
8A
100
AcDbEntity
  8
0
  6
ByLayer
 62
  256
370
   -1
100
AcDbCircle
 10
55.82763571569795
 20
6.48183008000565
 40
1.981830080005582
100
AcDbArc
 50
270.0000337677347
 51
129.9999745500263
  0
LINE
  5
8B
100
AcDbEntity
  8
0
  6
ByLayer
 62
  256
370
   -1
100
AcDbLine
 10
55.82763688370567
 20
4.500000000000412
 11
50.3826023216866
 21
4.5
  0
LINE
  5
8C
100
AcDbEntity
  8
0
  6
ByLayer
 62
  256
370
   -1
100
AcDbLine
 10
54.55374057011598
 20
8.000000565846294
 11
50.3826023216866
 21
4.5
  0
LINE
  5
8D
100
AcDbEntity
  8
0
  6
ByLayer
 62
  256
370
   -1
100
AcDbLine
 10
46.26138619250466
 20
3
 11
55.82763571569797
 21
3.000000000000068
  0
LINE
  5
8E
100
AcDbEntity
  8
0
  6
ByLayer
 62
  256
370
   -1
100
AcDbLine
 10
53.58955848123648
 20
9.14906666467844
 11
46.26138619250466
 21
3
  0
ARC
  5
8F
100
AcDbEntity
  8
0
  6
ByLayer
 62
  256
370
   -1
100
AcDbCircle
 10
94.17236428430205
 20
20.43816991999438
 40
3.481830080005582
100
AcDbArc
 50
90
 51
309.9999999999997
  0
ARC
  5
90
100
AcDbEntity
  8
0
  6
ByLayer
 62
  256
370
   -1
100
AcDbCircle
 10
94.17236428430205
 20
20.43816991999438
 40
1.981830080005582
100
AcDbArc
 50
90.00002544997355
 51
309.9999662322651
  0
LINE
  5
91
100
AcDbEntity
  8
0
  6
ByLayer
 62
  256
370
   -1
100
AcDbLine
 10
95.44625920948768
 20
18.91999924921944
 11
99.61739767831344
 21
22.41999999999994
  0
LINE
  5
92
100
AcDbEntity
  8
0
  6
ByLayer
 62
  256
370
   -1
100
AcDbLine
 10
94.17236340400122
 20
22.41999999999977
 11
99.61739767831344
 21
22.41999999999994
  0
LINE
  5
93
100
AcDbEntity
  8
0
  6
ByLayer
 62
  256
370
   -1
100
AcDbLine
 10
103.7386138074954
 20
23.91999999999994
 11
96.41044151876352
 21
17.77093333532159
  0
LINE
  5
94
100
AcDbEntity
  8
0
  6
ByLayer
 62
  256
370
   -1
100
AcDbLine
 10
94.17236428430203
 20
23.91999999999996
 11
103.7386138074954
 21
23.91999999999994
  0
ARC
  5
95
100
AcDbEntity
  8
0
  6
ByLayer
 62
  256
370
   -1
100
AcDbCircle
 10
104.0999365368453
 20
30.75022221559491
 40
5.000000000000006
100
AcDbArc
 50
309.9999999999997
 51
0
  0
ARC
  5
96
100
AcDbEntity
  8
0
  6
ByLayer
 62
  256
370
   -1
100
AcDbCircle
 10
104.0999365368453
 20
30.75022221559491
 40
3.500000000000006
100
AcDbArc
 50
309.9999999999997
 51
0
  0
LINE
  5
97
100
AcDbEntity
  8
0
  6
ByLayer
 62
  256
370
   -1
100
AcDbLine
 10
107.5999365368453
 20
30.75022221559491
 11
109.0999365368453
 21
30.75022221559491
  0
LINE
  5
98
100
AcDbEntity
  8
0
  6
ByLayer
 62
  256
370
   -1
100
AcDbLine
 10
106.3496931707482
 20
28.06906666467847
 11
104.9802888449874
 21
26.92
  0
LINE
  5
99
100
AcDbEntity
  8
0
  6
ByLayer
 62
  256
370
   -1
100
AcDbLine
 10
77.01949826153316
 20
28.42
 11
72.98050173846684
 21
25.42
  0
ARC
  5
9A
100
AcDbEntity
  8
0
  6
ByLayer
 62
  256
370
   -1
100
AcDbCircle
 10
79.10645410925426
 20
25.61026419575385
 40
3.50000000000001
100
AcDbArc
 50
36.60344177269709
 51
126.603441772697
  0
LINE
  5
9B
100
AcDbEntity
  8
0
  6
ByLayer
 62
  256
370
   -1
100
AcDbLine
 10
81.9161899135004
 20
27.69722004347496
 11
80.86979356241616
 21
26.92
  0
LINE
  5
9C
100
AcDbEntity
  8
0
  6
ByLayer
 62
  256
370
   -1
100
AcDbLine
 10
80.86979356241616
 20
26.92
 11
104.9802888449874
 21
26.92
  0
LINE
  5
9D
100
AcDbEntity
  8
0
  6
ByLayer
 62
  256
370
   -1
100
AcDbLine
 10
79.35308400182382
 20
1.500000000000011
 11
150
 21
1.500000000000028
  0
LINE
  5
9E
100
AcDbEntity
  8
0
  6
ByLayer
 62
  256
370
   -1
100
AcDbLine
 10
81.14071439071509
 20
3.000000000000004
 11
106.072199547786
 21
23.92000000000001
  0
LINE
  5
9F
100
AcDbEntity
  8
0
  6
ByLayer
 62
  256
370
   -1
100
AcDbLine
 10
108.4057852880766
 20
23.92000000000002
 11
106.072199547786
 21
23.92000000000001
  0
ARC
  5
A0
100
AcDbEntity
  8
0
  6
ByLayer
 62
  256
370
   -1
100
AcDbCircle
 10
108.4057852880766
 20
18.92000000000002
 40
5.000000000000006
100
AcDbArc
 50
39.99999999999996
 51
90.00000000000026
  0
ARC
  5
A1
100
AcDbEntity
  8
0
  6
ByLayer
 62
  256
370
   -1
100
AcDbCircle
 10
108.4057852880766
 20
18.92000000000002
 40
3.500000000000006
100
AcDbArc
 50
39.99999999999996
 51
90.00000000000026
  0
LINE
  5
A2
100
AcDbEntity
  8
0
  6
ByLayer
 62
  256
370
   -1
100
AcDbLine
 10
111.0869408389931
 20
21.1697566339029
 11
112.2360075036715
 21
22.13393804843271
  0
LINE
  5
A3
100
AcDbEntity
  8
0
  6
ByLayer
 62
  256
370
   -1
100
AcDbLine
 10
108.4057852880766
 20
22.42000000000002
 11
106.6181548991853
 21
22.42000000000002
  0
LINE
  5
A4
100
AcDbEntity
  8
0
  6
ByLayer
 62
  256
370
   -1
100
AcDbLine
 10
86.16312806204655
 20
3.298083591237113
 11
81.14071439071509
 21
3.000000000000004
  0
ARC
  5
A5
100
AcDbEntity
  8
0
  6
ByLayer
 62
  256
370
   -1
100
AcDbCircle
 10
85.95576563076588
 20
6.791935451590302
 40
3.50000000000001
100
AcDbArc
 50
273.396558227303
 51
3.396558227302865
  0
LINE
  5
A6
100
AcDbEntity
  8
0
  6
ByLayer
 62
  256
370
   -1
100
AcDbLine
 10
89.44961749111906
 20
6.999297882870959
 11
88.14844396712527
 21
6.922072368957487
  0
LINE
  5
A7
100
AcDbEntity
  8
0
  6
ByLayer
 62
  256
370
   -1
100
AcDbLine
 10
106.6181548991853
 20
22.42000000000002
 11
88.14844396712527
 21
6.922072368957487
  0
LINE
  5
A8
100
AcDbEntity
  8
0
  6
ByLayer
 62
  256
370
   -1
100
AcDbLine
 10
68.85928560928494
 20
23.92000000000002
 11
43.92780045221406
 21
3.000000000000028
  0
LINE
  5
A9
100
AcDbEntity
  8
0
  6
ByLayer
 62
  256
370
   -1
100
AcDbLine
 10
41.59421471192343
 20
3.000000000000021
 11
43.92780045221406
 21
3.000000000000028
  0
ARC
  5
AA
100
AcDbEntity
  8
0
  6
ByLayer
 62
  256
370
   -1
100
AcDbCircle
 10
41.5942147119234
 20
8.000000000000032
 40
5.000000000000006
100
AcDbArc
 50
219.9999999999999
 51
270.0000000000002
  0
ARC
  5
AB
100
AcDbEntity
  8
0
  6
ByLayer
 62
  256
370
   -1
100
AcDbCircle
 10
41.5942147119234
 20
8.000000000000032
 40
3.500000000000006
100
AcDbArc
 50
219.9999999999999
 51
270.0000000000002
  0
LINE
  5
AC
100
AcDbEntity
  8
0
  6
ByLayer
 62
  256
370
   -1
100
AcDbLine
 10
38.91305916100697
 20
5.750243366097141
 11
37.76399249632851
 21
4.786061951567337
  0
LINE
  5
AD
100
AcDbEntity
  8
0
  6
ByLayer
 62
  256
370
   -1
100
AcDbLine
 10
41.5942147119234
 20
4.500000000000021
 11
43.38184510081473
 21
4.500000000000028
  0
LINE
  5
AE
100
AcDbEntity
  8
0
  6
ByLayer
 62
  256
370
   -1
100
AcDbLine
 10
63.8368719379535
 20
23.62191640876291
 11
68.85928560928494
 21
23.92000000000002
  0
ARC
  5
AF
100
AcDbEntity
  8
0
  6
ByLayer
 62
  256
370
   -1
100
AcDbCircle
 10
64.04423436923415
 20
20.12806454840972
 40
3.50000000000001
100
AcDbArc
 50
93.39655822730296
 51
183.3965582273029
  0
LINE
  5
B0
100
AcDbEntity
  8
0
  6
ByLayer
 62
  256
370
   -1
100
AcDbLine
 10
60.55038250888097
 20
19.92070211712907
 11
61.85155603287475
 21
19.99792763104254
  0
LINE
  5
B1
100
AcDbEntity
  8
0
  6
ByLayer
 62
  256
370
   -1
100
AcDbLine
 10
61.85155603287475
 20
19.99792763104254
 11
43.38184510081473
 21
4.500000000000028
  0
LINE
  5
B2
100
AcDbEntity
  8
0
  6
ByLayer
 62
  256
370
   -1
100
AcDbLine
 10
77.01949826153319
 20
1.500000000000018
 11
44.47375580361336
 21
1.500000000000036
  0
LINE
  5
B3
100
AcDbEntity
  8
0
  6
ByLayer
 62
  256
370
   -1
100
AcDbLine
 10
42.686125414722
 20
4.263256414560601e-14
 11
44.47375580361336
 21
1.500000000000036
  0
ARC
  5
B4
100
AcDbEntity
  8
0
  6
ByLayer
 62
  256
370
   -1
100
AcDbCircle
 10
45.90006346315468
 20
-3.830222215594869
 40
5.000000000000006
100
AcDbArc
 50
129.9999999999997
 51
180
  0
ARC
  5
B5
100
AcDbEntity
  8
0
  6
ByLayer
 62
  256
370
   -1
100
AcDbCircle
 10
45.90006346315468
 20
-3.830222215594869
 40
3.500000000000006
100
AcDbArc
 50
129.9999999999997
 51
180
  0
LINE
  5
B6
100
AcDbEntity
  8
0
  6
ByLayer
 62
  256
370
   -1
100
AcDbLine
 10
42.40006346315468
 20
-3.830222215594876
 11
40.90006346315468
 21
-3.830222215594869
  0
LINE
  5
B7
100
AcDbEntity
  8
0
  6
ByLayer
 62
  256
370
   -1
100
AcDbLine
 10
43.65030682925183
 20
-1.149066664678426
 11
45.01971115501266
 21
4.618527782440651e-14
  0
LINE
  5
B8
100
AcDbEntity
  8
0
  6
ByLayer
 62
  256
370
   -1
100
AcDbLine
 10
72.98050173846684
 20
-1.499999999999996
 11
77.01949826153319
 21
1.500000000000018
  0
ARC
  5
B9
100
AcDbEntity
  8
0
  6
ByLayer
 62
  256
370
   -1
100
AcDbCircle
 10
70.89354589074577
 20
1.309735804246163
 40
3.50000000000001
100
AcDbArc
 50
216.6034417726971
 51
306.603441772697
  0
LINE
  5
BA
100
AcDbEntity
  8
0
  6
ByLayer
 62
  256
370
   -1
100
AcDbLine
 10
68.08381008649962
 20
-0.7772200434749301
 11
69.13020643758384
 21
2.131628207280301e-14
  0
LINE
  5
BB
100
AcDbEntity
  8
0
  6
ByLayer
 62
  256
370
   -1
100
AcDbLine
 10
45.01971115501266
 20
4.618527782440651e-14
 11
69.13020643758384
 21
2.131628207280301e-14
  0
LINE
  5
BC
100
AcDbEntity
  8
traverses
  6
ByLayer
 62
  256
370
   -1
100
AcDbLine
 10
111.7015595686027
 20
73.95428092995486
 11
140.9483958093403
 21
39.09925876804137
  0
LINE
  5
BD
100
AcDbEntity
  8
traverses
  6
ByLayer
 62
  256
370
   -1
100
AcDbLine
 10
108.6373817961268
 20
71.3831304912087
 11
137.8842180368644
 21
36.52810832929521
  0
LINE
  5
BE
100
AcDbEntity
  8
traverses
  6
ByLayer
 62
  256
370
   -1
100
AcDbLine
 10
145.5446624680542
 20
42.9559844261606
 11
147.0767513542921
 21
44.24155964553369
  0
LINE
  5
BF
100
AcDbEntity
  8
traverses
  6
ByLayer
 62
  256
370
   -1
100
AcDbLine
 10
116.2978262273166
 20
77.81100658807409
 11
117.8299151135545
 21
79.09658180744719
  0
LINE
  5
C0
100
AcDbEntity
  8
traverses
  6
ByLayer
 62
  256
370
   -1
100
AcDbLine
 10
111.7015595686027
 20
73.95428092995486
 11
108.6373817961268
 21
71.3831304912087
  0
LINE
  5
C1
100
AcDbEntity
  8
traverses
  6
ByLayer
 62
  256
370
   -1
100
AcDbLine
 10
140.9483958093403
 20
39.09925876804137
 11
137.8842180368644
 21
36.52810832929521
  0
LINE
  5
C2
100
AcDbEntity
  8
traverses
  6
ByLayer
 62
  256
370
   -1
100
AcDbLine
 10
104.041115137413
 20
67.52640483308944
 11
133.2879513781506
 21
32.67138267117596
  0
LINE
  5
C3
100
AcDbEntity
  8
traverses
  6
ByLayer
 62
  256
370
   -1
100
AcDbLine
 10
100.976937364937
 20
64.95525439434329
 11
130.2237736056746
 21
30.1002322324298
  0
LINE
  5
C4
100
AcDbEntity
  8
traverses
  6
ByLayer
 62
  256
370
   -1
100
AcDbLine
 10
104.041115137413
 20
67.52640483308944
 11
100.976937364937
 21
64.95525439434329
  0
LINE
  5
C5
100
AcDbEntity
  8
traverses
  6
ByLayer
 62
  256
370
   -1
100
AcDbLine
 10
133.2879513781506
 20
32.67138267117596
 11
130.2237736056746
 21
30.1002322324298
  0
LINE
  5
C6
100
AcDbEntity
  8
traverses
  6
ByLayer
 62
  256
370
   -1
100
AcDbLine
 10
96.38067070622319
 20
61.09852873622403
 11
125.6275069469608
 21
26.24350657431054
  0
LINE
  5
C7
100
AcDbEntity
  8
traverses
  6
ByLayer
 62
  256
370
   -1
100
AcDbLine
 10
93.31649293374727
 20
58.52737829747787
 11
122.5633291744849
 21
23.67235613556438
  0
LINE
  5
C8
100
AcDbEntity
  8
traverses
  6
ByLayer
 62
  256
370
   -1
100
AcDbLine
 10
96.38067070622319
 20
61.09852873622403
 11
93.31649293374727
 21
58.52737829747787
  0
LINE
  5
C9
100
AcDbEntity
  8
traverses
  6
ByLayer
 62
  256
370
   -1
100
AcDbLine
 10
125.6275069469608
 20
26.24350657431054
 11
122.5633291744849
 21
23.67235613556438
  0
LINE
  5
CA
100
AcDbEntity
  8
traverses
  6
ByLayer
 62
  256
370
   -1
100
AcDbLine
 10
88.72022627503341
 20
54.67065263935861
 11
117.967062515771
 21
19.81563047744512
  0
LINE
  5
CB
100
AcDbEntity
  8
traverses
  6
ByLayer
 62
  256
370
   -1
100
AcDbLine
 10
85.6560485025575
 20
52.09950220061245
 11
114.9028847432951
 21
17.24448003869896
  0
LINE
  5
CC
100
AcDbEntity
  8
traverses
  6
ByLayer
 62
  256
370
   -1
100
AcDbLine
 10
88.72022627503341
 20
54.67065263935861
 11
85.6560485025575
 21
52.09950220061245
  0
LINE
  5
CD
100
AcDbEntity
  8
traverses
  6
ByLayer
 62
  256
370
   -1
100
AcDbLine
 10
117.967062515771
 20
19.81563047744512
 11
114.9028847432951
 21
17.24448003869896
  0
LINE
  5
CE
100
AcDbEntity
  8
traverses
  6
ByLayer
 62
  256
370
   -1
100
AcDbLine
 10
81.05978184384364
 20
48.24277654249319
 11
110.3066180845812
 21
13.3877543805797
  0
LINE
  5
CF
100
AcDbEntity
  8
traverses
  6
ByLayer
 62
  256
370
   -1
100
AcDbLine
 10
77.99560407136772
 20
45.67162610374703
 11
107.2424403121053
 21
10.81660394183354
  0
LINE
  5
D0
100
AcDbEntity
  8
traverses
  6
ByLayer
 62
  256
370
   -1
100
AcDbLine
 10
81.05978184384364
 20
48.24277654249319
 11
77.99560407136772
 21
45.67162610374703
  0
LINE
  5
D1
100
AcDbEntity
  8
traverses
  6
ByLayer
 62
  256
370
   -1
100
AcDbLine
 10
110.3066180845812
 20
13.3877543805797
 11
107.2424403121053
 21
10.81660394183354
  0
LINE
  5
D2
100
AcDbEntity
  8
traverses
  6
ByLayer
 62
  256
370
   -1
100
AcDbLine
 10
73.39933741265386
 20
41.81490044562777
 11
102.6461736533915
 21
6.959878283714282
  0
LINE
  5
D3
100
AcDbEntity
  8
traverses
  6
ByLayer
 62
  256
370
   -1
100
AcDbLine
 10
70.33515964017795
 20
39.24375000688161
 11
99.58199588091554
 21
4.388727844968123
  0
LINE
  5
D4
100
AcDbEntity
  8
traverses
  6
ByLayer
 62
  256
370
   -1
100
AcDbLine
 10
73.39933741265386
 20
41.81490044562777
 11
70.33515964017795
 21
39.24375000688161
  0
LINE
  5
D5
100
AcDbEntity
  8
traverses
  6
ByLayer
 62
  256
370
   -1
100
AcDbLine
 10
102.6461736533915
 20
6.959878283714282
 11
99.58199588091554
 21
4.388727844968123
  0
LINE
  5
D6
100
AcDbEntity
  8
traverses
  6
ByLayer
 62
  256
370
   -1
100
AcDbLine
 10
65.73889298146409
 20
35.38702434876235
 11
94.98572922220168
 21
0.5320021868488638
  0
LINE
  5
D7
100
AcDbEntity
  8
traverses
  6
ByLayer
 62
  256
370
   -1
100
AcDbLine
 10
62.67471520898818
 20
32.81587391001619
 11
91.92155144972577
 21
-2.039148251897295
  0
LINE
  5
D8
100
AcDbEntity
  8
traverses
  6
ByLayer
 62
  256
370
   -1
100
AcDbLine
 10
65.73889298146409
 20
35.38702434876235
 11
62.67471520898818
 21
32.81587391001619
  0
LINE
  5
D9
100
AcDbEntity
  8
traverses
  6
ByLayer
 62
  256
370
   -1
100
AcDbLine
 10
94.98572922220168
 20
0.5320021868488638
 11
91.92155144972577
 21
-2.039148251897295
  0
LINE
  5
DA
100
AcDbEntity
  8
traverses
  6
ByLayer
 62
  256
370
   -1
100
AcDbLine
 10
58.07844855027432
 20
28.95914825189693
 11
87.32528479101191
 21
-5.895873910016554
  0
LINE
  5
DB
100
AcDbEntity
  8
traverses
  6
ByLayer
 62
  256
370
   -1
100
AcDbLine
 10
55.0142707777984
 20
26.38799781315078
 11
84.26110701853599
 21
-8.467024348762713
  0
LINE
  5
DC
100
AcDbEntity
  8
traverses
  6
ByLayer
 62
  256
370
   -1
100
AcDbLine
 10
58.07844855027432
 20
28.95914825189693
 11
55.0142707777984
 21
26.38799781315078
  0
LINE
  5
DD
100
AcDbEntity
  8
traverses
  6
ByLayer
 62
  256
370
   -1
100
AcDbLine
 10
87.32528479101191
 20
-5.895873910016554
 11
84.26110701853599
 21
-8.467024348762713
  0
LINE
  5
DE
100
AcDbEntity
  8
traverses
  6
ByLayer
 62
  256
370
   -1
100
AcDbLine
 10
50.41800411908454
 20
22.53127215503152
 11
79.66484035982214
 21
-12.32375000688197
  0
LINE
  5
DF
100
AcDbEntity
  8
traverses
  6
ByLayer
 62
  256
370
   -1
100
AcDbLine
 10
47.35382634660863
 20
19.96012171628536
 11
76.60066258734622
 21
-14.89490044562813
  0
LINE
  5
E0
100
AcDbEntity
  8
traverses
  6
ByLayer
 62
  256
370
   -1
100
AcDbLine
 10
50.41800411908454
 20
22.53127215503152
 11
47.35382634660863
 21
19.96012171628536
  0
LINE
  5
E1
100
AcDbEntity
  8
traverses
  6
ByLayer
 62
  256
370
   -1
100
AcDbLine
 10
79.66484035982214
 20
-12.32375000688197
 11
76.60066258734622
 21
-14.89490044562813
  0
LINE
  5
E2
100
AcDbEntity
  8
traverses
  6
ByLayer
 62
  256
370
   -1
100
AcDbLine
 10
42.75755968789477
 20
16.1033960581661
 11
72.00439592863236
 21
-18.75162610374739
  0
LINE
  5
E3
100
AcDbEntity
  8
traverses
  6
ByLayer
 62
  256
370
   -1
100
AcDbLine
 10
39.69338191541885
 20
13.53224561941994
 11
68.94021815615645
 21
-21.32277654249355
  0
LINE
  5
E4
100
AcDbEntity
  8
traverses
  6
ByLayer
 62
  256
370
   -1
100
AcDbLine
 10
42.75755968789477
 20
16.1033960581661
 11
39.69338191541885
 21
13.53224561941994
  0
LINE
  5
E5
100
AcDbEntity
  8
traverses
  6
ByLayer
 62
  256
370
   -1
100
AcDbLine
 10
72.00439592863236
 20
-18.75162610374739
 11
68.94021815615645
 21
-21.32277654249355
  0
LINE
  5
E6
100
AcDbEntity
  8
traverses
  6
ByLayer
 62
  256
370
   -1
100
AcDbLine
 10
35.097115256705
 20
9.675519961300679
 11
64.34395149744259
 21
-25.17950220061281
  0
LINE
  5
E7
100
AcDbEntity
  8
traverses
  6
ByLayer
 62
  256
370
   -1
100
AcDbLine
 10
32.03293748422908
 20
7.104369522554521
 11
61.27977372496667
 21
-27.75065263935897
  0
LINE
  5
E8
100
AcDbEntity
  8
traverses
  6
ByLayer
 62
  256
370
   -1
100
AcDbLine
 10
35.097115256705
 20
9.675519961300679
 11
32.03293748422908
 21
7.104369522554521
  0
LINE
  5
E9
100
AcDbEntity
  8
traverses
  6
ByLayer
 62
  256
370
   -1
100
AcDbLine
 10
64.34395149744259
 20
-25.17950220061281
 11
61.27977372496667
 21
-27.75065263935897
  0
LINE
  5
EA
100
AcDbEntity
  8
traverses
  6
ByLayer
 62
  256
370
   -1
100
AcDbLine
 10
27.43667082551522
 20
3.247643864435261
 11
56.68350706625282
 21
-31.60737829747823
  0
LINE
  5
EB
100
AcDbEntity
  8
traverses
  6
ByLayer
 62
  256
370
   -1
100
AcDbLine
 10
24.37249305303931
 20
0.6764934256891024
 11
53.6193292937769
 21
-34.17852873622439
  0
LINE
  5
EC
100
AcDbEntity
  8
traverses
  6
ByLayer
 62
  256
370
   -1
100
AcDbLine
 10
27.43667082551522
 20
3.247643864435261
 11
24.37249305303931
 21
0.6764934256891024
  0
LINE
  5
ED
100
AcDbEntity
  8
traverses
  6
ByLayer
 62
  256
370
   -1
100
AcDbLine
 10
56.68350706625282
 20
-31.60737829747823
 11
53.6193292937769
 21
-34.17852873622439
  0
LINE
  5
EE
100
AcDbEntity
  8
traverses
  6
ByLayer
 62
  256
370
   -1
100
AcDbLine
 10
19.77622639432545
 20
-3.180232232430157
 11
49.02306263506304
 21
-38.03525439434365
  0
LINE
  5
EF
100
AcDbEntity
  8
traverses
  6
ByLayer
 62
  256
370
   -1
100
AcDbLine
 10
16.71204862184953
 20
-5.751382671176316
 11
45.95888486258713
 21
-40.6064048330898
  0
LINE
  5
F0
100
AcDbEntity
  8
traverses
  6
ByLayer
 62
  256
370
   -1
100
AcDbLine
 10
19.77622639432545
 20
-3.180232232430157
 11
16.71204862184953
 21
-5.751382671176316
  0
LINE
  5
F1
100
AcDbEntity
  8
traverses
  6
ByLayer
 62
  256
370
   -1
100
AcDbLine
 10
49.02306263506304
 20
-38.03525439434365
 11
45.95888486258713
 21
-40.6064048330898
  0
LINE
  5
F2
100
AcDbEntity
  8
traverses
  6
ByLayer
 62
  256
370
   -1
100
AcDbLine
 10
12.11578196313567
 20
-9.608108329295575
 11
41.36261820387327
 21
-44.46313049120906
  0
LINE
  5
F3
100
AcDbEntity
  8
traverses
  6
ByLayer
 62
  256
370
   -1
100
AcDbLine
 10
9.051604190659759
 20
-12.17925876804173
 11
38.29844043139735
 21
-47.03428092995522
  0
LINE
  5
F4
100
AcDbEntity
  8
traverses
  6
ByLayer
 62
  256
370
   -1
100
AcDbLine
 10
12.11578196313567
 20
-9.608108329295575
 11
9.051604190659759
 21
-12.17925876804173
  0
LINE
  5
F5
100
AcDbEntity
  8
traverses
  6
ByLayer
 62
  256
370
   -1
100
AcDbLine
 10
41.36261820387327
 20
-44.46313049120906
 11
38.29844043139735
 21
-47.03428092995522
  0
LINE
  5
F6
100
AcDbEntity
  8
traverses
  6
ByLayer
 62
  256
370
   -1
100
AcDbLine
 10
4.455337531945901
 20
-16.03598442616099
 11
2.923248645707941
 21
-17.32155964553407
  0
LINE
  5
F7
100
AcDbEntity
  8
traverses
  6
ByLayer
 62
  256
370
   -1
100
AcDbLine
 10
33.70217377268349
 20
-50.89100658807448
 11
32.17008488644554
 21
-52.17658180744757
  0
LINE
  5
F8
100
AcDbEntity
  8
traverses
  6
ByLayer
 62
  256
370
   -1
100
AcDbLine
 10
117.8299151135545
 20
79.09658180744719
 11
131.7141274827839
 21
62.5500218360773
  0
LINE
  5
F9
100
AcDbEntity
  8
traverses
  6
ByLayer
 62
  256
370
   -1
100
AcDbLine
 10
134.1567203995927
 20
59.63905295222518
 11
147.0767513542921
 21
44.24155964553369
  0
LINE
  5
FA
100
AcDbEntity
  8
traverses
  6
ByLayer
 62
  256
370
   -1
100
AcDbLine
 10
116.2978262273166
 20
77.81100658807409
 11
145.5446624680542
 21
42.9559844261606
  0
LINE
  5
FB
100
AcDbEntity
  8
traverses
  6
ByLayer
 62
  256
370
   -1
100
AcDbLine
 10
134.1567203995927
 20
59.63905295222518
 11
135.8420181744545
 21
61.05318569353556
  0
LINE
  5
FC
100
AcDbEntity
  8
traverses
  6
ByLayer
 62
  256
370
   -1
100
AcDbLine
 10
135.8420181744545
 20
61.05318569353556
 11
137.7703810035141
 21
58.7550523641786
  0
LINE
  5
FD
100
AcDbEntity
  8
traverses
  6
ByLayer
 62
  256
370
   -1
100
AcDbLine
 10
137.7703810035141
 20
58.7550523641786
 11
139.3024698897521
 21
60.04062758355167
  0
LINE
  5
FE
100
AcDbEntity
  8
traverses
  6
ByLayer
 62
  256
370
   -1
100
AcDbLine
 10
131.7141274827839
 20
62.55002183607737
 11
133.3994252576457
 21
63.96415457738772
  0
LINE
  5
FF
100
AcDbEntity
  8
traverses
  6
ByLayer
 62
  256
370
   -1
100
AcDbLine
 10
133.3994252576457
 20
63.96415457738772
 11
131.4710624285862
 21
66.26228790674472
  0
LINE
  5
100
100
AcDbEntity
  8
traverses
  6
ByLayer
 62
  256
370
   -1
100
AcDbLine
 10
131.4710624285862
 20
66.26228790674472
 11
133.0031513148241
 21
67.54786312611776
  0
LINE
  5
101
100
AcDbEntity
  8
traverses
  6
ByLayer
 62
  256
370
   -1
100
AcDbLine
 10
133.0031513148241
 20
67.54786312611776
 11
139.3024698897521
 21
60.04062758355167
  0
LINE
  5
102
100
AcDbEntity
  8
traverses
  6
ByLayer
 62
  256
370
   -1
100
AcDbLine
 10
20.84642157895264
 20
-35.57011772569498
 11
19.31433269271469
 21
-36.85569294506806
  0
LINE
  5
103
100
AcDbEntity
  8
traverses
  6
ByLayer
 62
  256
370
   -1
100
AcDbLine
 10
18.27527114020647
 20
-32.50593995321908
 11
16.74318225396852
 21
-33.79151517259216
  0
LINE
  5
104
100
AcDbEntity
  8
traverses
  6
ByLayer
 62
  256
370
   -1
100
AcDbLine
 10
2.923248645707941
 20
-17.32155964553407
 11
16.74318225396852
 21
-33.79151517259216
  0
LINE
  5
105
100
AcDbEntity
  8
traverses
  6
ByLayer
 62
  256
370
   -1
100
AcDbLine
 10
19.31433269271469
 20
-36.85569294506806
 11
32.17008488644554
 21
-52.17658180744757
  0
LINE
  5
106
100
AcDbEntity
  8
traverses
  6
ByLayer
 62
  256
370
   -1
100
AcDbLine
 10
4.455337531945901
 20
-16.03598442616099
 11
18.27527114020647
 21
-32.50593995321908
  0
LINE
  5
107
100
AcDbEntity
  8
traverses
  6
ByLayer
 62
  256
370
   -1
100
AcDbLine
 10
20.84642157895264
 20
-35.57011772569498
 11
33.70217377268349
 21
-50.89100658807448
  0
LINE
  5
108
100
AcDbEntity
  8
traverses2
  6
ByLayer
 62
  256
370
   -1
100
AcDbLine
 10
141.9999999999999
 20
36.21000000000001
 11
142
 21
-9.290000000000024
  0
LINE
  5
109
100
AcDbEntity
  8
traverses2
  6
ByLayer
 62
  256
370
   -1
100
AcDbLine
 10
137.9999999999999
 20
36.21000000000001
 11
138
 21
-9.290000000000024
  0
LINE
  5
10A
100
AcDbEntity
  8
traverses2
  6
ByLayer
 62
  256
370
   -1
100
AcDbLine
 10
148
 20
-9.289999999999999
 11
150
 21
-9.290000000000003
  0
LINE
  5
10B
100
AcDbEntity
  8
traverses2
  6
ByLayer
 62
  256
370
   -1
100
AcDbLine
 10
147.9999999999999
 20
36.21000000000001
 11
150
 21
36.21000000000001
  0
LINE
  5
10C
100
AcDbEntity
  8
traverses2
  6
ByLayer
 62
  256
370
   -1
100
AcDbLine
 10
141.9999999999999
 20
36.21000000000001
 11
137.9999999999999
 21
36.21000000000001
  0
LINE
  5
10D
100
AcDbEntity
  8
traverses2
  6
ByLayer
 62
  256
370
   -1
100
AcDbLine
 10
142
 20
-9.290000000000024
 11
138
 21
-9.290000000000024
  0
LINE
  5
10E
100
AcDbEntity
  8
traverses2
  6
ByLayer
 62
  256
370
   -1
100
AcDbLine
 10
131.9999999999999
 20
36.20999999999998
 11
132
 21
-9.290000000000049
  0
LINE
  5
10F
100
AcDbEntity
  8
traverses2
  6
ByLayer
 62
  256
370
   -1
100
AcDbLine
 10
127.9999999999999
 20
36.20999999999998
 11
128
 21
-9.290000000000049
  0
LINE
  5
110
100
AcDbEntity
  8
traverses2
  6
ByLayer
 62
  256
370
   -1
100
AcDbLine
 10
131.9999999999999
 20
36.20999999999998
 11
127.9999999999999
 21
36.20999999999998
  0
LINE
  5
111
100
AcDbEntity
  8
traverses2
  6
ByLayer
 62
  256
370
   -1
100
AcDbLine
 10
132
 20
-9.290000000000049
 11
128
 21
-9.290000000000049
  0
LINE
  5
112
100
AcDbEntity
  8
traverses2
  6
ByLayer
 62
  256
370
   -1
100
AcDbLine
 10
121.9999999999999
 20
36.20999999999995
 11
122
 21
-9.290000000000074
  0
LINE
  5
113
100
AcDbEntity
  8
traverses2
  6
ByLayer
 62
  256
370
   -1
100
AcDbLine
 10
117.9999999999999
 20
36.20999999999995
 11
118
 21
-9.29000000000007
  0
LINE
  5
114
100
AcDbEntity
  8
traverses2
  6
ByLayer
 62
  256
370
   -1
100
AcDbLine
 10
121.9999999999999
 20
36.20999999999995
 11
117.9999999999999
 21
36.20999999999995
  0
LINE
  5
115
100
AcDbEntity
  8
traverses2
  6
ByLayer
 62
  256
370
   -1
100
AcDbLine
 10
122
 20
-9.290000000000074
 11
118
 21
-9.29000000000007
  0
LINE
  5
116
100
AcDbEntity
  8
traverses2
  6
ByLayer
 62
  256
370
   -1
100
AcDbLine
 10
111.9999999999999
 20
36.20999999999993
 11
112
 21
-9.290000000000095
  0
LINE
  5
117
100
AcDbEntity
  8
traverses2
  6
ByLayer
 62
  256
370
   -1
100
AcDbLine
 10
107.9999999999999
 20
36.20999999999993
 11
108
 21
-9.290000000000092
  0
LINE
  5
118
100
AcDbEntity
  8
traverses2
  6
ByLayer
 62
  256
370
   -1
100
AcDbLine
 10
111.9999999999999
 20
36.20999999999993
 11
107.9999999999999
 21
36.20999999999993
  0
LINE
  5
119
100
AcDbEntity
  8
traverses2
  6
ByLayer
 62
  256
370
   -1
100
AcDbLine
 10
112
 20
-9.290000000000095
 11
108
 21
-9.290000000000092
  0
LINE
  5
11A
100
AcDbEntity
  8
traverses2
  6
ByLayer
 62
  256
370
   -1
100
AcDbLine
 10
101.9999999999999
 20
36.20999999999991
 11
102
 21
-9.29000000000012
  0
LINE
  5
11B
100
AcDbEntity
  8
traverses2
  6
ByLayer
 62
  256
370
   -1
100
AcDbLine
 10
97.99999999999991
 20
36.20999999999991
 11
97.99999999999997
 21
-9.29000000000012
  0
LINE
  5
11C
100
AcDbEntity
  8
traverses2
  6
ByLayer
 62
  256
370
   -1
100
AcDbLine
 10
101.9999999999999
 20
36.20999999999991
 11
97.99999999999991
 21
36.20999999999991
  0
LINE
  5
11D
100
AcDbEntity
  8
traverses2
  6
ByLayer
 62
  256
370
   -1
100
AcDbLine
 10
102
 20
-9.29000000000012
 11
97.99999999999997
 21
-9.29000000000012
  0
LINE
  5
11E
100
AcDbEntity
  8
traverses2
  6
ByLayer
 62
  256
370
   -1
100
AcDbLine
 10
91.99999999999991
 20
36.20999999999988
 11
91.99999999999996
 21
-9.290000000000141
  0
LINE
  5
11F
100
AcDbEntity
  8
traverses2
  6
ByLayer
 62
  256
370
   -1
100
AcDbLine
 10
87.9999999999999
 20
36.20999999999988
 11
87.99999999999996
 21
-9.290000000000141
  0
LINE
  5
120
100
AcDbEntity
  8
traverses2
  6
ByLayer
 62
  256
370
   -1
100
AcDbLine
 10
91.99999999999991
 20
36.20999999999988
 11
87.9999999999999
 21
36.20999999999988
  0
LINE
  5
121
100
AcDbEntity
  8
traverses2
  6
ByLayer
 62
  256
370
   -1
100
AcDbLine
 10
91.99999999999996
 20
-9.290000000000141
 11
87.99999999999996
 21
-9.290000000000141
  0
LINE
  5
122
100
AcDbEntity
  8
traverses2
  6
ByLayer
 62
  256
370
   -1
100
AcDbLine
 10
81.9999999999999
 20
36.20999999999985
 11
81.99999999999994
 21
-9.290000000000166
  0
LINE
  5
123
100
AcDbEntity
  8
traverses2
  6
ByLayer
 62
  256
370
   -1
100
AcDbLine
 10
77.99999999999989
 20
36.20999999999986
 11
77.99999999999994
 21
-9.290000000000163
  0
LINE
  5
124
100
AcDbEntity
  8
traverses2
  6
ByLayer
 62
  256
370
   -1
100
AcDbLine
 10
81.9999999999999
 20
36.20999999999985
 11
77.99999999999989
 21
36.20999999999986
  0
LINE
  5
125
100
AcDbEntity
  8
traverses2
  6
ByLayer
 62
  256
370
   -1
100
AcDbLine
 10
81.99999999999994
 20
-9.290000000000166
 11
77.99999999999994
 21
-9.290000000000163
  0
LINE
  5
126
100
AcDbEntity
  8
traverses2
  6
ByLayer
 62
  256
370
   -1
100
AcDbLine
 10
71.99999999999989
 20
36.20999999999984
 11
71.99999999999994
 21
-9.290000000000191
  0
LINE
  5
127
100
AcDbEntity
  8
traverses2
  6
ByLayer
 62
  256
370
   -1
100
AcDbLine
 10
67.99999999999989
 20
36.20999999999984
 11
67.99999999999994
 21
-9.290000000000191
  0
LINE
  5
128
100
AcDbEntity
  8
traverses2
  6
ByLayer
 62
  256
370
   -1
100
AcDbLine
 10
71.99999999999989
 20
36.20999999999984
 11
67.99999999999989
 21
36.20999999999984
  0
LINE
  5
129
100
AcDbEntity
  8
traverses2
  6
ByLayer
 62
  256
370
   -1
100
AcDbLine
 10
71.99999999999994
 20
-9.290000000000191
 11
67.99999999999994
 21
-9.290000000000191
  0
LINE
  5
12A
100
AcDbEntity
  8
traverses2
  6
ByLayer
 62
  256
370
   -1
100
AcDbLine
 10
61.99999999999988
 20
36.20999999999981
 11
61.99999999999993
 21
-9.290000000000212
  0
LINE
  5
12B
100
AcDbEntity
  8
traverses2
  6
ByLayer
 62
  256
370
   -1
100
AcDbLine
 10
57.99999999999987
 20
36.20999999999981
 11
57.99999999999993
 21
-9.290000000000212
  0
LINE
  5
12C
100
AcDbEntity
  8
traverses2
  6
ByLayer
 62
  256
370
   -1
100
AcDbLine
 10
61.99999999999988
 20
36.20999999999981
 11
57.99999999999987
 21
36.20999999999981
  0
LINE
  5
12D
100
AcDbEntity
  8
traverses2
  6
ByLayer
 62
  256
370
   -1
100
AcDbLine
 10
61.99999999999993
 20
-9.290000000000212
 11
57.99999999999993
 21
-9.290000000000212
  0
LINE
  5
12E
100
AcDbEntity
  8
traverses2
  6
ByLayer
 62
  256
370
   -1
100
AcDbLine
 10
51.99999999999987
 20
36.20999999999978
 11
51.99999999999991
 21
-9.290000000000237
  0
LINE
  5
12F
100
AcDbEntity
  8
traverses2
  6
ByLayer
 62
  256
370
   -1
100
AcDbLine
 10
47.99999999999986
 20
36.20999999999979
 11
47.99999999999991
 21
-9.290000000000237
  0
LINE
  5
130
100
AcDbEntity
  8
traverses2
  6
ByLayer
 62
  256
370
   -1
100
AcDbLine
 10
51.99999999999987
 20
36.20999999999978
 11
47.99999999999986
 21
36.20999999999979
  0
LINE
  5
131
100
AcDbEntity
  8
traverses2
  6
ByLayer
 62
  256
370
   -1
100
AcDbLine
 10
51.99999999999991
 20
-9.290000000000237
 11
47.99999999999991
 21
-9.290000000000237
  0
LINE
  5
132
100
AcDbEntity
  8
traverses2
  6
ByLayer
 62
  256
370
   -1
100
AcDbLine
 10
41.99999999999986
 20
36.20999999999976
 11
41.99999999999991
 21
-9.290000000000262
  0
LINE
  5
133
100
AcDbEntity
  8
traverses2
  6
ByLayer
 62
  256
370
   -1
100
AcDbLine
 10
37.99999999999986
 20
36.20999999999977
 11
37.9999999999999
 21
-9.290000000000262
  0
LINE
  5
134
100
AcDbEntity
  8
traverses2
  6
ByLayer
 62
  256
370
   -1
100
AcDbLine
 10
41.99999999999986
 20
36.20999999999976
 11
37.99999999999986
 21
36.20999999999977
  0
LINE
  5
135
100
AcDbEntity
  8
traverses2
  6
ByLayer
 62
  256
370
   -1
100
AcDbLine
 10
41.99999999999991
 20
-9.290000000000262
 11
37.9999999999999
 21
-9.290000000000262
  0
LINE
  5
136
100
AcDbEntity
  8
traverses2
  6
ByLayer
 62
  256
370
   -1
100
AcDbLine
 10
31.99999999999984
 20
36.20999999999974
 11
31.9999999999999
 21
-9.290000000000283
  0
LINE
  5
137
100
AcDbEntity
  8
traverses2
  6
ByLayer
 62
  256
370
   -1
100
AcDbLine
 10
27.99999999999984
 20
36.20999999999974
 11
27.99999999999989
 21
-9.290000000000283
  0
LINE
  5
138
100
AcDbEntity
  8
traverses2
  6
ByLayer
 62
  256
370
   -1
100
AcDbLine
 10
31.99999999999984
 20
36.20999999999974
 11
27.99999999999984
 21
36.20999999999974
  0
LINE
  5
139
100
AcDbEntity
  8
traverses2
  6
ByLayer
 62
  256
370
   -1
100
AcDbLine
 10
31.9999999999999
 20
-9.290000000000283
 11
27.99999999999989
 21
-9.290000000000283
  0
LINE
  5
13A
100
AcDbEntity
  8
traverses2
  6
ByLayer
 62
  256
370
   -1
100
AcDbLine
 10
21.99999999999984
 20
36.20999999999972
 11
21.99999999999989
 21
-9.290000000000305
  0
LINE
  5
13B
100
AcDbEntity
  8
traverses2
  6
ByLayer
 62
  256
370
   -1
100
AcDbLine
 10
17.99999999999984
 20
36.20999999999972
 11
17.99999999999989
 21
-9.290000000000305
  0
LINE
  5
13C
100
AcDbEntity
  8
traverses2
  6
ByLayer
 62
  256
370
   -1
100
AcDbLine
 10
21.99999999999984
 20
36.20999999999972
 11
17.99999999999984
 21
36.20999999999972
  0
LINE
  5
13D
100
AcDbEntity
  8
traverses2
  6
ByLayer
 62
  256
370
   -1
100
AcDbLine
 10
21.99999999999989
 20
-9.290000000000305
 11
17.99999999999989
 21
-9.290000000000305
  0
LINE
  5
13E
100
AcDbEntity
  8
traverses2
  6
ByLayer
 62
  256
370
   -1
100
AcDbLine
 10
11.99999999999982
 20
36.20999999999969
 11
11.99999999999987
 21
-9.290000000000333
  0
LINE
  5
13F
100
AcDbEntity
  8
traverses2
  6
ByLayer
 62
  256
370
   -1
100
AcDbLine
 10
7.999999999999829
 20
36.2099999999997
 11
7.999999999999872
 21
-9.290000000000333
  0
LINE
  5
140
100
AcDbEntity
  8
traverses2
  6
ByLayer
 62
  256
370
   -1
100
AcDbLine
 10
11.99999999999982
 20
36.20999999999969
 11
7.999999999999829
 21
36.2099999999997
  0
LINE
  5
141
100
AcDbEntity
  8
traverses2
  6
ByLayer
 62
  256
370
   -1
100
AcDbLine
 10
11.99999999999987
 20
-9.290000000000333
 11
7.999999999999872
 21
-9.290000000000333
  0
LINE
  5
142
100
AcDbEntity
  8
traverses2
  6
ByLayer
 62
  256
370
   -1
100
AcDbLine
 10
1.999999999999815
 20
36.20999999999967
 11
-1.989519660128281e-13
 21
36.20999999999967
  0
LINE
  5
143
100
AcDbEntity
  8
traverses2
  6
ByLayer
 62
  256
370
   -1
100
AcDbLine
 10
1.999999999999858
 20
-9.290000000000354
 11
-1.4210854715202e-13
 21
-9.290000000000369
  0
LINE
  5
144
100
AcDbEntity
  8
traverses2
  6
ByLayer
 62
  256
370
   -1
100
AcDbLine
 10
150
 20
36.21000000000001
 11
150.0000000000001
 21
14.60999999999999
  0
LINE
  5
145
100
AcDbEntity
  8
traverses2
  6
ByLayer
 62
  256
370
   -1
100
AcDbLine
 10
150.0000000000001
 20
10.80999999999999
 11
150
 21
-9.290000000000003
  0
LINE
  5
146
100
AcDbEntity
  8
traverses2
  6
ByLayer
 62
  256
370
   -1
100
AcDbLine
 10
147.9999999999999
 20
36.21000000000001
 11
148
 21
-9.289999999999999
  0
LINE
  5
147
100
AcDbEntity
  8
traverses2
  6
ByLayer
 62
  256
370
   -1
100
AcDbLine
 10
150.0000000000001
 20
10.80999999999999
 11
152.2
 21
10.80999999999998
  0
LINE
  5
148
100
AcDbEntity
  8
traverses2
  6
ByLayer
 62
  256
370
   -1
100
AcDbLine
 10
152.2
 20
10.80999999999998
 11
152.2
 21
7.809999999999967
  0
LINE
  5
149
100
AcDbEntity
  8
traverses2
  6
ByLayer
 62
  256
370
   -1
100
AcDbLine
 10
152.2
 20
7.809999999999967
 11
154.2
 21
7.809999999999945
  0
LINE
  5
14A
100
AcDbEntity
  8
traverses2
  6
ByLayer
 62
  256
370
   -1
100
AcDbLine
 10
150.0000000000001
 20
14.61000000000004
 11
152.2000000000001
 21
14.60999999999997
  0
LINE
  5
14B
100
AcDbEntity
  8
traverses2
  6
ByLayer
 62
  256
370
   -1
100
AcDbLine
 10
152.2000000000001
 20
14.60999999999997
 11
152.2000000000002
 21
17.60999999999998
  0
LINE
  5
14C
100
AcDbEntity
  8
traverses2
  6
ByLayer
 62
  256
370
   -1
100
AcDbLine
 10
152.2000000000002
 20
17.60999999999998
 11
154.2000000000002
 21
17.60999999999994
  0
LINE
  5
14D
100
AcDbEntity
  8
traverses2
  6
ByLayer
 62
  256
370
   -1
100
AcDbLine
 10
154.2000000000002
 20
17.60999999999994
 11
154.2
 21
7.809999999999945
  0
LINE
  5
14E
100
AcDbEntity
  8
traverses2
  6
ByLayer
 62
  256
370
   -1
100
AcDbLine
 10
1.999999999999787
 20
10.70999999999964
 11
-2.273736754432321e-13
 21
10.70999999999963
  0
LINE
  5
14F
100
AcDbEntity
  8
traverses2
  6
ByLayer
 62
  256
370
   -1
100
AcDbLine
 10
1.999999999999758
 20
14.70999999999965
 11
-2.273736754432321e-13
 21
14.70999999999963
  0
LINE
  5
150
100
AcDbEntity
  8
traverses2
  6
ByLayer
 62
  256
370
   -1
100
AcDbLine
 10
-1.989519660128281e-13
 20
36.20999999999967
 11
-2.273736754432321e-13
 21
14.70999999999963
  0
LINE
  5
151
100
AcDbEntity
  8
traverses2
  6
ByLayer
 62
  256
370
   -1
100
AcDbLine
 10
-2.273736754432321e-13
 20
10.70999999999963
 11
-1.4210854715202e-13
 21
-9.290000000000369
  0
LINE
  5
152
100
AcDbEntity
  8
traverses2
  6
ByLayer
 62
  256
370
   -1
100
AcDbLine
 10
1.999999999999815
 20
36.20999999999967
 11
1.999999999999758
 21
14.70999999999965
  0
LINE
  5
153
100
AcDbEntity
  8
traverses2
  6
ByLayer
 62
  256
370
   -1
100
AcDbLine
 10
1.999999999999787
 20
10.70999999999964
 11
1.999999999999858
 21
-9.290000000000354
  0
ENDSEC
  0
SECTION
  2
OBJECTS
  0
DICTIONARY
  5
C
330
0
100
AcDbDictionary
281
    1
  3
ACAD_GROUP
350
D
  0
DICTIONARY
  5
D
330
C
100
AcDbDictionary
281
    1
  0
ENDSEC
  0
EOF
